ISO-10303-21;
HEADER;
FILE_DESCRIPTION (( 'STEP AP203' ),
    '1' );
FILE_NAME ('STP-201-021-4A640-000(WF-2).STEP',
    '2021-07-14T05:16:30',
    ( '' ),
    ( '' ),
    'SwSTEP 2.0',
    'SolidWorks 2017',
    '' );
FILE_SCHEMA (( 'CONFIG_CONTROL_DESIGN' ));
ENDSEC;

DATA;
#1 = ORIENTED_EDGE ( 'NONE', *, *, #231, .T. ) ;
#2 = ORIENTED_EDGE ( 'NONE', *, *, #138, .F. ) ;
#3 = ORIENTED_EDGE ( 'NONE', *, *, #200, .T. ) ;
#4 = DATE_AND_TIME ( #242, #119 ) ;
#5 = CC_DESIGN_PERSON_AND_ORGANIZATION_ASSIGNMENT ( #106, #121, ( #234 ) ) ;
#6 = ORIENTED_EDGE ( 'NONE', *, *, #183, .T. ) ;
#7 = ADVANCED_FACE ( 'NONE', ( #192 ), #254, .F. ) ;
#8 = LINE ( 'NONE', #143, #215 ) ;
#9 = CARTESIAN_POINT ( 'NONE',  ( 0.0000000000000000000, 0.0000000000000000000, 0.0000000000000000000 ) ) ;
#10 = PLANE ( 'NONE',  #82 ) ;
#11 = CARTESIAN_POINT ( 'NONE',  ( -31.75000000000000000, 3.888253587292846500E-015, -50.79999999999999700 ) ) ;
#12 = DIRECTION ( 'NONE',  ( -0.0000000000000000000, -0.0000000000000000000, 1.000000000000000000 ) ) ;
#13 = ADVANCED_FACE ( 'NONE', ( #148 ), #44, .T. ) ;
#14 = DESIGN_CONTEXT ( 'detailed design', #141, 'design' ) ;
#15 = ORIENTED_EDGE ( 'NONE', *, *, #138, .T. ) ;
#16 = VECTOR ( 'NONE', #75, 1000.000000000000000 ) ;
#17 = EDGE_CURVE ( 'NONE', #62, #206, #96, .T. ) ;
#18 = DIRECTION ( 'NONE',  ( -0.0000000000000000000, -0.0000000000000000000, 1.000000000000000000 ) ) ;
#19 = FACE_OUTER_BOUND ( 'NONE', #104, .T. ) ;
#20 = APPROVAL_STATUS ( 'not_yet_approved' ) ;
#21 = DIRECTION ( 'NONE',  ( -0.0000000000000000000, -0.0000000000000000000, 1.000000000000000000 ) ) ;
#22 = AXIS2_PLACEMENT_3D ( 'NONE', #55, #73, #208 ) ;
#23 = LOCAL_TIME ( 13, 16, 30.00000000000000000, #182 ) ;
#24 = FACE_OUTER_BOUND ( 'NONE', #195, .T. ) ;
#25 = APPROVAL_DATE_TIME ( #4, #88 ) ;
#26 = PERSON_AND_ORGANIZATION ( #160, #98 ) ;
#27 = DIRECTION ( 'NONE',  ( 1.000000000000000000, 0.0000000000000000000, 0.0000000000000000000 ) ) ;
#28 = MANIFOLD_SOLID_BREP ( '±ÛÂà1', #213 ) ;
#29 = DIRECTION ( 'NONE',  ( 1.000000000000000000, 0.0000000000000000000, 0.0000000000000000000 ) ) ;
#30 = CC_DESIGN_DATE_AND_TIME_ASSIGNMENT ( #137, #186, ( #84 ) ) ;
#31 = CARTESIAN_POINT ( 'NONE',  ( 0.0000000000000000000, 0.0000000000000000000, 0.0000000000000000000 ) ) ;
#32 = ADVANCED_FACE ( 'NONE', ( #24 ), #236, .T. ) ;
#33 = CARTESIAN_POINT ( 'NONE',  ( 0.0000000000000000000, 0.0000000000000000000, 0.0000000000000000000 ) ) ;
#34 = AXIS2_PLACEMENT_3D ( 'NONE', #31, #232, #74 ) ;
#35 = DIRECTION ( 'NONE',  ( 1.000000000000000000, 0.0000000000000000000, 0.0000000000000000000 ) ) ;
#36 = COORDINATED_UNIVERSAL_TIME_OFFSET ( 8, 0, .AHEAD. ) ;
#37 = VERTEX_POINT ( 'NONE', #187 ) ;
#38 = AXIS2_PLACEMENT_3D ( 'NONE', #168, #211, #27 ) ;
#39 = ORIENTED_EDGE ( 'NONE', *, *, #231, .F. ) ;
#40 = VECTOR ( 'NONE', #126, 1000.000000000000000 ) ;
#41 = CC_DESIGN_DATE_AND_TIME_ASSIGNMENT ( #169, #233, ( #97 ) ) ;
#42 = CARTESIAN_POINT ( 'NONE',  ( 0.0000000000000000000, 0.0000000000000000000, -50.79999999999999700 ) ) ;
#43 = ORIENTED_EDGE ( 'NONE', *, *, #61, .T. ) ;
#44 = CYLINDRICAL_SURFACE ( 'NONE', #223, 31.75000000000000000 ) ;
#45 = DIRECTION ( 'NONE',  ( 0.0000000000000000000, 0.0000000000000000000, -1.000000000000000000 ) ) ;
#46 = PERSON_AND_ORGANIZATION ( #160, #98 ) ;
#47 = ORIENTED_EDGE ( 'NONE', *, *, #94, .F. ) ;
#48 = FACE_OUTER_BOUND ( 'NONE', #255, .T. ) ;
#49 = DIRECTION ( 'NONE',  ( -0.0000000000000000000, -0.0000000000000000000, 1.000000000000000000 ) ) ;
#50 = ORIENTED_EDGE ( 'NONE', *, *, #123, .T. ) ;
#51 = EDGE_CURVE ( 'NONE', #110, #37, #72, .T. ) ;
#52 = CARTESIAN_POINT ( 'NONE',  ( 0.0000000000000000000, 0.0000000000000000000, 0.0000000000000000000 ) ) ;
#53 = APPROVAL_ROLE ( '' ) ;
#54 = DIRECTION ( 'NONE',  ( -0.0000000000000000000, -0.0000000000000000000, 1.000000000000000000 ) ) ;
#55 = CARTESIAN_POINT ( 'NONE',  ( 0.0000000000000000000, 0.0000000000000000000, -38.10000000000000100 ) ) ;
#56 = DIRECTION ( 'NONE',  ( -0.0000000000000000000, -0.0000000000000000000, 1.000000000000000000 ) ) ;
#57 = CC_DESIGN_PERSON_AND_ORGANIZATION_ASSIGNMENT ( #46, #93, ( #234 ) ) ;
#58 = ORIENTED_EDGE ( 'NONE', *, *, #247, .T. ) ;
#59 = ADVANCED_FACE ( 'NONE', ( #19 ), #80, .T. ) ;
#60 = EDGE_LOOP ( 'NONE', ( #47, #39 ) ) ;
#61 = EDGE_CURVE ( 'NONE', #92, #37, #174, .T. ) ;
#62 = VERTEX_POINT ( 'NONE', #125 ) ;
#63 = DIRECTION ( 'NONE',  ( 0.0000000000000000000, 0.0000000000000000000, -1.000000000000000000 ) ) ;
#64 = DIRECTION ( 'NONE',  ( -0.0000000000000000000, -0.0000000000000000000, 1.000000000000000000 ) ) ;
#65 = CIRCLE ( 'NONE', #79, 31.75000000000000000 ) ;
#66 = PRODUCT ( 'STP-201-021-4A640-000(WF-2)', 'STP-201-021-4A640-000(WF-2)', '', ( #249 ) ) ;
#67 = CARTESIAN_POINT ( 'NONE',  ( -12.69999999999999900, 1.555301434917138400E-015, -38.10000000000000100 ) ) ;
#68 = APPROVAL_PERSON_ORGANIZATION ( #115, #88, #150 ) ;
#69 = AXIS2_PLACEMENT_3D ( 'NONE', #199, #221, #245 ) ;
#70 = PRODUCT_DEFINITION_SHAPE ( 'NONE', 'NONE',  #84 ) ;
#71 = APPROVAL ( #20, 'UNSPECIFIED' ) ;
#72 = LINE ( 'NONE', #229, #16 ) ;
#73 = DIRECTION ( 'NONE',  ( -0.0000000000000000000, -0.0000000000000000000, 1.000000000000000000 ) ) ;
#74 = DIRECTION ( 'NONE',  ( 1.000000000000000000, 0.0000000000000000000, 0.0000000000000000000 ) ) ;
#75 = DIRECTION ( 'NONE',  ( -0.0000000000000000000, -0.0000000000000000000, 1.000000000000000000 ) ) ;
#76 = APPLICATION_CONTEXT ( 'configuration controlled 3d designs of mechanical parts and assemblies' ) ;
#77 = CC_DESIGN_PERSON_AND_ORGANIZATION_ASSIGNMENT ( #151, #85, ( #97 ) ) ;
#78 = DIRECTION ( 'NONE',  ( 1.000000000000000000, 0.0000000000000000000, 0.0000000000000000000 ) ) ;
#79 = AXIS2_PLACEMENT_3D ( 'NONE', #170, #253, #133 ) ;
#80 = CYLINDRICAL_SURFACE ( 'NONE', #155, 31.75000000000000000 ) ;
#81 = CALENDAR_DATE ( 2021, 14, 7 ) ;
#82 = AXIS2_PLACEMENT_3D ( 'NONE', #147, #45, #181 ) ;
#83 = ORIENTED_EDGE ( 'NONE', *, *, #193, .T. ) ;
#84 = PRODUCT_DEFINITION ( 'UNKNOWN', '', #234, #14 ) ;
#85 = PERSON_AND_ORGANIZATION_ROLE ( 'classification_officer' ) ;
#86 = CALENDAR_DATE ( 2021, 14, 7 ) ;
#87 = LOCAL_TIME ( 13, 16, 30.00000000000000000, #142 ) ;
#88 = APPROVAL ( #154, 'UNSPECIFIED' ) ;
#89 = PERSON_AND_ORGANIZATION ( #160, #98 ) ;
#90 =( NAMED_UNIT ( * ) PLANE_ANGLE_UNIT ( ) SI_UNIT ( $, .RADIAN. ) );
#91 = EDGE_LOOP ( 'NONE', ( #3, #43 ) ) ;
#92 = VERTEX_POINT ( 'NONE', #128 ) ;
#93 = PERSON_AND_ORGANIZATION_ROLE ( 'creator' ) ;
#94 = EDGE_CURVE ( 'NONE', #110, #144, #179, .T. ) ;
#95 = CARTESIAN_POINT ( 'NONE',  ( 12.69999999999999900, 0.0000000000000000000, -38.10000000000000100 ) ) ;
#96 = LINE ( 'NONE', #136, #40 ) ;
#97 = SECURITY_CLASSIFICATION ( '', '', #162 ) ;
#98 = ORGANIZATION ( 'UNSPECIFIED', 'UNSPECIFIED', '' ) ;
#99 = ORIENTED_EDGE ( 'NONE', *, *, #94, .T. ) ;
#100 = LOCAL_TIME ( 13, 16, 30.00000000000000000, #175 ) ;
#101 = ORIENTED_EDGE ( 'NONE', *, *, #51, .T. ) ;
#102 = FACE_BOUND ( 'NONE', #60, .T. ) ;
#103 = ORIENTED_EDGE ( 'NONE', *, *, #194, .T. ) ;
#104 = EDGE_LOOP ( 'NONE', ( #152, #58, #210, #191 ) ) ;
#105 = ADVANCED_FACE ( 'NONE', ( #224 ), #167, .T. ) ;
#106 = PERSON_AND_ORGANIZATION ( #160, #98 ) ;
#107 =( GEOMETRIC_REPRESENTATION_CONTEXT ( 3 ) GLOBAL_UNCERTAINTY_ASSIGNED_CONTEXT ( ( #244 ) ) GLOBAL_UNIT_ASSIGNED_CONTEXT ( ( #230, #90, #129 ) ) REPRESENTATION_CONTEXT ( 'NONE', 'WORKASPACE' ) );
#108 = DIRECTION ( 'NONE',  ( 1.000000000000000000, 0.0000000000000000000, 0.0000000000000000000 ) ) ;
#109 = CC_DESIGN_SECURITY_CLASSIFICATION ( #97, ( #234 ) ) ;
#110 = VERTEX_POINT ( 'NONE', #95 ) ;
#111 = DIRECTION ( 'NONE',  ( 1.000000000000000000, 0.0000000000000000000, 0.0000000000000000000 ) ) ;
#112 = AXIS2_PLACEMENT_3D ( 'NONE', #33, #12, #35 ) ;
#113 = ORIENTED_EDGE ( 'NONE', *, *, #247, .F. ) ;
#114 = VECTOR ( 'NONE', #54, 1000.000000000000000 ) ;
#115 = PERSON_AND_ORGANIZATION ( #160, #98 ) ;
#116 = AXIS2_PLACEMENT_3D ( 'NONE', #197, #21, #196 ) ;
#117 = APPLICATION_PROTOCOL_DEFINITION ( 'international standard', 'config_control_design', 1994, #141 ) ;
#118 = LINE ( 'NONE', #252, #114 ) ;
#119 = LOCAL_TIME ( 13, 16, 30.00000000000000000, #237 ) ;
#120 = DATE_AND_TIME ( #176, #87 ) ;
#121 = PERSON_AND_ORGANIZATION_ROLE ( 'design_supplier' ) ;
#122 = CC_DESIGN_APPROVAL ( #88, ( #97 ) ) ;
#123 = EDGE_CURVE ( 'NONE', #251, #206, #65, .T. ) ;
#124 = FACE_OUTER_BOUND ( 'NONE', #91, .T. ) ;
#125 = CARTESIAN_POINT ( 'NONE',  ( 31.75000000000000000, 0.0000000000000000000, -50.79999999999999700 ) ) ;
#126 = DIRECTION ( 'NONE',  ( -0.0000000000000000000, -0.0000000000000000000, 1.000000000000000000 ) ) ;
#127 = PERSON_AND_ORGANIZATION ( #160, #98 ) ;
#128 = CARTESIAN_POINT ( 'NONE',  ( -12.69999999999999900, 1.555301434917138400E-015, 0.0000000000000000000 ) ) ;
#129 =( NAMED_UNIT ( * ) SI_UNIT ( $, .STERADIAN. ) SOLID_ANGLE_UNIT ( ) );
#130 = AXIS2_PLACEMENT_3D ( 'NONE', #173, #56, #135 ) ;
#131 = ADVANCED_FACE ( 'NONE', ( #124 ), #10, .F. ) ;
#132 = CARTESIAN_POINT ( 'NONE',  ( 31.75000000000000000, 0.0000000000000000000, -38.10000000000000100 ) ) ;
#133 = DIRECTION ( 'NONE',  ( 1.000000000000000000, 0.0000000000000000000, 0.0000000000000000000 ) ) ;
#134 = CIRCLE ( 'NONE', #112, 12.69999999999999900 ) ;
#135 = DIRECTION ( 'NONE',  ( 1.000000000000000000, 0.0000000000000000000, 0.0000000000000000000 ) ) ;
#136 = CARTESIAN_POINT ( 'NONE',  ( 31.75000000000000000, 0.0000000000000000000, 0.0000000000000000000 ) ) ;
#137 = DATE_AND_TIME ( #81, #238 ) ;
#138 = EDGE_CURVE ( 'NONE', #62, #239, #219, .T. ) ;
#139 = AXIS2_PLACEMENT_3D ( 'NONE', #146, #228, #212 ) ;
#140 = PLANE ( 'NONE',  #222 ) ;
#141 = APPLICATION_CONTEXT ( 'configuration controlled 3d designs of mechanical parts and assemblies' ) ;
#142 = COORDINATED_UNIVERSAL_TIME_OFFSET ( 8, 0, .AHEAD. ) ;
#143 = CARTESIAN_POINT ( 'NONE',  ( -12.69999999999999900, 1.555301434917138400E-015, 0.0000000000000000000 ) ) ;
#144 = VERTEX_POINT ( 'NONE', #67 ) ;
#145 = AXIS2_PLACEMENT_3D ( 'NONE', #42, #18, #161 ) ;
#146 = CARTESIAN_POINT ( 'NONE',  ( 0.0000000000000000000, 31.75000000000000000, -50.79999999999999700 ) ) ;
#147 = CARTESIAN_POINT ( 'NONE',  ( 0.0000000000000000000, 0.0000000000000000000, 0.0000000000000000000 ) ) ;
#148 = FACE_OUTER_BOUND ( 'NONE', #159, .T. ) ;
#149 = DIRECTION ( 'NONE',  ( 0.0000000000000000000, 0.0000000000000000000, 1.000000000000000000 ) ) ;
#150 = APPROVAL_ROLE ( '' ) ;
#151 = PERSON_AND_ORGANIZATION ( #160, #98 ) ;
#152 = ORIENTED_EDGE ( 'NONE', *, *, #194, .F. ) ;
#153 = CC_DESIGN_APPROVAL ( #248, ( #234 ) ) ;
#154 = APPROVAL_STATUS ( 'not_yet_approved' ) ;
#155 = AXIS2_PLACEMENT_3D ( 'NONE', #226, #205, #108 ) ;
#156 = ORIENTED_EDGE ( 'NONE', *, *, #193, .F. ) ;
#157 = ORIENTED_EDGE ( 'NONE', *, *, #61, .F. ) ;
#158 = CARTESIAN_POINT ( 'NONE',  ( -31.75000000000000000, 3.888253587292846500E-015, -38.10000000000000100 ) ) ;
#159 = EDGE_LOOP ( 'NONE', ( #15, #103, #203, #166 ) ) ;
#160 = PERSON ( 'UNSPECIFIED', 'UNSPECIFIED', 'UNSPECIFIED', ('UNSPECIFIED'), ('UNSPECIFIED'), ('UNSPECIFIED') ) ;
#161 = DIRECTION ( 'NONE',  ( 1.000000000000000000, 0.0000000000000000000, 0.0000000000000000000 ) ) ;
#162 = SECURITY_CLASSIFICATION_LEVEL ( 'unclassified' ) ;
#163 = CIRCLE ( 'NONE', #116, 31.75000000000000000 ) ;
#164 = PRODUCT_RELATED_PRODUCT_CATEGORY ( 'detail', '', ( #66 ) ) ;
#165 = AXIS2_PLACEMENT_3D ( 'NONE', #9, #49, #78 ) ;
#166 = ORIENTED_EDGE ( 'NONE', *, *, #17, .F. ) ;
#167 = CYLINDRICAL_SURFACE ( 'NONE', #38, 12.69999999999999900 ) ;
#168 = CARTESIAN_POINT ( 'NONE',  ( 0.0000000000000000000, 0.0000000000000000000, 0.0000000000000000000 ) ) ;
#169 = DATE_AND_TIME ( #184, #100 ) ;
#170 = CARTESIAN_POINT ( 'NONE',  ( 0.0000000000000000000, 0.0000000000000000000, -38.10000000000000100 ) ) ;
#171 = PERSON_AND_ORGANIZATION_ROLE ( 'design_owner' ) ;
#172 = CARTESIAN_POINT ( 'NONE',  ( 0.0000000000000000000, 0.0000000000000000000, 0.0000000000000000000 ) ) ;
#173 = CARTESIAN_POINT ( 'NONE',  ( 0.0000000000000000000, 0.0000000000000000000, -38.10000000000000100 ) ) ;
#174 = CIRCLE ( 'NONE', #165, 12.69999999999999900 ) ;
#175 = COORDINATED_UNIVERSAL_TIME_OFFSET ( 8, 0, .AHEAD. ) ;
#176 = CALENDAR_DATE ( 2021, 14, 7 ) ;
#177 = ADVANCED_BREP_SHAPE_REPRESENTATION ( 'STP-201-021-4A640-000(WF-2)', ( #28, #188 ), #107 ) ;
#178 = PERSON_AND_ORGANIZATION_ROLE ( 'creator' ) ;
#179 = CIRCLE ( 'NONE', #22, 12.69999999999999900 ) ;
#180 = CARTESIAN_POINT ( 'NONE',  ( 0.0000000000000000000, 12.69999999999999900, -38.10000000000000100 ) ) ;
#181 = DIRECTION ( 'NONE',  ( -1.000000000000000000, 0.0000000000000000000, -0.0000000000000000000 ) ) ;
#182 = COORDINATED_UNIVERSAL_TIME_OFFSET ( 8, 0, .AHEAD. ) ;
#183 = EDGE_CURVE ( 'NONE', #206, #251, #163, .T. ) ;
#184 = CALENDAR_DATE ( 2021, 14, 7 ) ;
#185 = APPROVAL_DATE_TIME ( #120, #71 ) ;
#186 = DATE_TIME_ROLE ( 'creation_date' ) ;
#187 = CARTESIAN_POINT ( 'NONE',  ( 12.69999999999999900, 0.0000000000000000000, 0.0000000000000000000 ) ) ;
#188 = AXIS2_PLACEMENT_3D ( 'NONE', #52, #149, #29 ) ;
#189 = APPROVAL_PERSON_ORGANIZATION ( #26, #248, #53 ) ;
#190 = ORIENTED_EDGE ( 'NONE', *, *, #51, .F. ) ;
#191 = ORIENTED_EDGE ( 'NONE', *, *, #123, .F. ) ;
#192 = FACE_OUTER_BOUND ( 'NONE', #198, .T. ) ;
#193 = EDGE_CURVE ( 'NONE', #144, #92, #8, .T. ) ;
#194 = EDGE_CURVE ( 'NONE', #239, #251, #118, .T. ) ;
#195 = EDGE_LOOP ( 'NONE', ( #156, #1, #101, #157 ) ) ;
#196 = DIRECTION ( 'NONE',  ( 1.000000000000000000, 0.0000000000000000000, 0.0000000000000000000 ) ) ;
#197 = CARTESIAN_POINT ( 'NONE',  ( 0.0000000000000000000, 0.0000000000000000000, -38.10000000000000100 ) ) ;
#198 = EDGE_LOOP ( 'NONE', ( #2, #113 ) ) ;
#199 = CARTESIAN_POINT ( 'NONE',  ( 0.0000000000000000000, 0.0000000000000000000, -50.79999999999999700 ) ) ;
#200 = EDGE_CURVE ( 'NONE', #37, #92, #134, .T. ) ;
#201 = DATE_AND_TIME ( #86, #23 ) ;
#202 = CC_DESIGN_APPROVAL ( #71, ( #84 ) ) ;
#203 = ORIENTED_EDGE ( 'NONE', *, *, #183, .F. ) ;
#204 = CIRCLE ( 'NONE', #130, 12.69999999999999900 ) ;
#205 = DIRECTION ( 'NONE',  ( -0.0000000000000000000, -0.0000000000000000000, 1.000000000000000000 ) ) ;
#206 = VERTEX_POINT ( 'NONE', #132 ) ;
#207 = APPROVAL_STATUS ( 'not_yet_approved' ) ;
#208 = DIRECTION ( 'NONE',  ( 1.000000000000000000, 0.0000000000000000000, 0.0000000000000000000 ) ) ;
#209 = APPLICATION_PROTOCOL_DEFINITION ( 'international standard', 'config_control_design', 1994, #76 ) ;
#210 = ORIENTED_EDGE ( 'NONE', *, *, #17, .T. ) ;
#211 = DIRECTION ( 'NONE',  ( -0.0000000000000000000, -0.0000000000000000000, 1.000000000000000000 ) ) ;
#212 = DIRECTION ( 'NONE',  ( 1.000000000000000000, 0.0000000000000000000, 0.0000000000000000000 ) ) ;
#213 = CLOSED_SHELL ( 'NONE', ( #13, #105, #131, #32, #250, #59, #7 ) ) ;
#214 = CIRCLE ( 'NONE', #145, 31.75000000000000000 ) ;
#215 = VECTOR ( 'NONE', #64, 1000.000000000000000 ) ;
#216 = CC_DESIGN_PERSON_AND_ORGANIZATION_ASSIGNMENT ( #89, #178, ( #84 ) ) ;
#217 = ORIENTED_EDGE ( 'NONE', *, *, #200, .F. ) ;
#218 = DIRECTION ( 'NONE',  ( -1.000000000000000000, 0.0000000000000000000, -0.0000000000000000000 ) ) ;
#219 = CIRCLE ( 'NONE', #69, 31.75000000000000000 ) ;
#220 = SHAPE_DEFINITION_REPRESENTATION ( #70, #177 ) ;
#221 = DIRECTION ( 'NONE',  ( -0.0000000000000000000, -0.0000000000000000000, 1.000000000000000000 ) ) ;
#222 = AXIS2_PLACEMENT_3D ( 'NONE', #180, #63, #218 ) ;
#223 = AXIS2_PLACEMENT_3D ( 'NONE', #172, #235, #111 ) ;
#224 = FACE_OUTER_BOUND ( 'NONE', #246, .T. ) ;
#225 = APPROVAL_DATE_TIME ( #201, #248 ) ;
#226 = CARTESIAN_POINT ( 'NONE',  ( 0.0000000000000000000, 0.0000000000000000000, 0.0000000000000000000 ) ) ;
#227 = APPROVAL_PERSON_ORGANIZATION ( #127, #71, #241 ) ;
#228 = DIRECTION ( 'NONE',  ( 0.0000000000000000000, -0.0000000000000000000, 1.000000000000000000 ) ) ;
#229 = CARTESIAN_POINT ( 'NONE',  ( 12.69999999999999900, 0.0000000000000000000, 0.0000000000000000000 ) ) ;
#230 =( LENGTH_UNIT ( ) NAMED_UNIT ( * ) SI_UNIT ( .MILLI., .METRE. ) );
#231 = EDGE_CURVE ( 'NONE', #144, #110, #204, .T. ) ;
#232 = DIRECTION ( 'NONE',  ( -0.0000000000000000000, -0.0000000000000000000, 1.000000000000000000 ) ) ;
#233 = DATE_TIME_ROLE ( 'classification_date' ) ;
#234 = PRODUCT_DEFINITION_FORMATION_WITH_SPECIFIED_SOURCE ( 'ANY', '', #66, .NOT_KNOWN. ) ;
#235 = DIRECTION ( 'NONE',  ( -0.0000000000000000000, -0.0000000000000000000, 1.000000000000000000 ) ) ;
#236 = CYLINDRICAL_SURFACE ( 'NONE', #34, 12.69999999999999900 ) ;
#237 = COORDINATED_UNIVERSAL_TIME_OFFSET ( 8, 0, .AHEAD. ) ;
#238 = LOCAL_TIME ( 13, 16, 30.00000000000000000, #36 ) ;
#239 = VERTEX_POINT ( 'NONE', #11 ) ;
#240 = CC_DESIGN_PERSON_AND_ORGANIZATION_ASSIGNMENT ( #243, #171, ( #66 ) ) ;
#241 = APPROVAL_ROLE ( '' ) ;
#242 = CALENDAR_DATE ( 2021, 14, 7 ) ;
#243 = PERSON_AND_ORGANIZATION ( #160, #98 ) ;
#244 = UNCERTAINTY_MEASURE_WITH_UNIT (LENGTH_MEASURE( 1.000000000000000100E-005 ), #230, 'distance_accuracy_value', 'NONE');
#245 = DIRECTION ( 'NONE',  ( 1.000000000000000000, 0.0000000000000000000, 0.0000000000000000000 ) ) ;
#246 = EDGE_LOOP ( 'NONE', ( #99, #83, #217, #190 ) ) ;
#247 = EDGE_CURVE ( 'NONE', #239, #62, #214, .T. ) ;
#248 = APPROVAL ( #207, 'UNSPECIFIED' ) ;
#249 = MECHANICAL_CONTEXT ( 'NONE', #76, 'mechanical' ) ;
#250 = ADVANCED_FACE ( 'NONE', ( #102, #48 ), #140, .F. ) ;
#251 = VERTEX_POINT ( 'NONE', #158 ) ;
#252 = CARTESIAN_POINT ( 'NONE',  ( -31.75000000000000000, 3.888253587292846500E-015, 0.0000000000000000000 ) ) ;
#253 = DIRECTION ( 'NONE',  ( -0.0000000000000000000, -0.0000000000000000000, 1.000000000000000000 ) ) ;
#254 = PLANE ( 'NONE',  #139 ) ;
#255 = EDGE_LOOP ( 'NONE', ( #6, #50 ) ) ;
ENDSEC;
END-ISO-10303-21;
