ISO-10303-21;
HEADER;
FILE_DESCRIPTION (( 'STEP AP203' ),
    '1' );
FILE_NAME ('STP-201-021-4A480-001(WF-1.5-1.75).STEP',
    '2021-07-14T05:14:23',
    ( '' ),
    ( '' ),
    'SwSTEP 2.0',
    'SolidWorks 2017',
    '' );
FILE_SCHEMA (( 'CONFIG_CONTROL_DESIGN' ));
ENDSEC;

DATA;
#1 = CC_DESIGN_PERSON_AND_ORGANIZATION_ASSIGNMENT ( #187, #73, ( #255 ) ) ;
#2 = CARTESIAN_POINT ( 'NONE',  ( 0.0000000000000000000, 0.0000000000000000000, -44.45000000000000300 ) ) ;
#3 = VERTEX_POINT ( 'NONE', #171 ) ;
#4 = CYLINDRICAL_SURFACE ( 'NONE', #109, 9.525000000000000400 ) ;
#5 = CARTESIAN_POINT ( 'NONE',  ( 0.0000000000000000000, 0.0000000000000000000, 0.0000000000000000000 ) ) ;
#6 = AXIS2_PLACEMENT_3D ( 'NONE', #174, #191, #82 ) ;
#7 = APPROVAL ( #55, 'UNSPECIFIED' ) ;
#8 = CARTESIAN_POINT ( 'NONE',  ( -23.81250000000000000, 2.916190190469635100E-015, -44.45000000000000300 ) ) ;
#9 = DIRECTION ( 'NONE',  ( 1.000000000000000000, 0.0000000000000000000, 0.0000000000000000000 ) ) ;
#10 = COORDINATED_UNIVERSAL_TIME_OFFSET ( 8, 0, .AHEAD. ) ;
#11 = PERSON_AND_ORGANIZATION_ROLE ( 'creator' ) ;
#12 = FACE_OUTER_BOUND ( 'NONE', #254, .T. ) ;
#13 = CC_DESIGN_PERSON_AND_ORGANIZATION_ASSIGNMENT ( #92, #230, ( #250 ) ) ;
#14 = ORIENTED_EDGE ( 'NONE', *, *, #130, .T. ) ;
#15 = PRODUCT_RELATED_PRODUCT_CATEGORY ( 'detail', '', ( #247 ) ) ;
#16 = PLANE ( 'NONE',  #114 ) ;
#17 = DIRECTION ( 'NONE',  ( -0.0000000000000000000, -0.0000000000000000000, 1.000000000000000000 ) ) ;
#18 = DATE_AND_TIME ( #127, #124 ) ;
#19 = CARTESIAN_POINT ( 'NONE',  ( 23.81250000000000000, 0.0000000000000000000, -57.15000000000000600 ) ) ;
#20 = ORIENTED_EDGE ( 'NONE', *, *, #141, .T. ) ;
#21 = CARTESIAN_POINT ( 'NONE',  ( 0.0000000000000000000, 0.0000000000000000000, -44.45000000000000300 ) ) ;
#22 =( LENGTH_UNIT ( ) NAMED_UNIT ( * ) SI_UNIT ( .MILLI., .METRE. ) );
#23 = DIRECTION ( 'NONE',  ( -0.0000000000000000000, -0.0000000000000000000, 1.000000000000000000 ) ) ;
#24 = DIRECTION ( 'NONE',  ( -0.0000000000000000000, -0.0000000000000000000, 1.000000000000000000 ) ) ;
#25 = COORDINATED_UNIVERSAL_TIME_OFFSET ( 8, 0, .AHEAD. ) ;
#26 = CLOSED_SHELL ( 'NONE', ( #236, #74, #35, #60, #237, #231, #208 ) ) ;
#27 = FACE_OUTER_BOUND ( 'NONE', #108, .T. ) ;
#28 = CARTESIAN_POINT ( 'NONE',  ( 0.0000000000000000000, 9.525000000000000400, -44.45000000000000300 ) ) ;
#29 = DATE_TIME_ROLE ( 'creation_date' ) ;
#30 = FACE_OUTER_BOUND ( 'NONE', #189, .T. ) ;
#31 = ORIENTED_EDGE ( 'NONE', *, *, #181, .F. ) ;
#32 = VERTEX_POINT ( 'NONE', #219 ) ;
#33 = CC_DESIGN_APPROVAL ( #7, ( #250 ) ) ;
#34 = ORGANIZATION ( 'UNSPECIFIED', 'UNSPECIFIED', '' ) ;
#35 = ADVANCED_FACE ( 'NONE', ( #12 ), #16, .F. ) ;
#36 = AXIS2_PLACEMENT_3D ( 'NONE', #51, #43, #175 ) ;
#37 = EDGE_LOOP ( 'NONE', ( #76, #20, #102, #128 ) ) ;
#38 = APPROVAL_PERSON_ORGANIZATION ( #91, #186, #228 ) ;
#39 = ORIENTED_EDGE ( 'NONE', *, *, #181, .T. ) ;
#40 = PRODUCT_DEFINITION_SHAPE ( 'NONE', 'NONE',  #248 ) ;
#41 = CC_DESIGN_PERSON_AND_ORGANIZATION_ASSIGNMENT ( #212, #225, ( #250 ) ) ;
#42 = DIRECTION ( 'NONE',  ( 0.0000000000000000000, 0.0000000000000000000, -1.000000000000000000 ) ) ;
#43 = DIRECTION ( 'NONE',  ( -0.0000000000000000000, -0.0000000000000000000, 1.000000000000000000 ) ) ;
#44 = ADVANCED_BREP_SHAPE_REPRESENTATION ( 'STP-201-021-4A480-001(WF-1.5-1.75)', ( #209, #151 ), #201 ) ;
#45 = EDGE_CURVE ( 'NONE', #135, #229, #66, .T. ) ;
#46 = CC_DESIGN_DATE_AND_TIME_ASSIGNMENT ( #233, #140, ( #255 ) ) ;
#47 = CARTESIAN_POINT ( 'NONE',  ( 0.0000000000000000000, 0.0000000000000000000, 0.0000000000000000000 ) ) ;
#48 = DIRECTION ( 'NONE',  ( 0.0000000000000000000, -0.0000000000000000000, 1.000000000000000000 ) ) ;
#49 = CARTESIAN_POINT ( 'NONE',  ( 0.0000000000000000000, 0.0000000000000000000, -57.15000000000000600 ) ) ;
#50 = ORIENTED_EDGE ( 'NONE', *, *, #216, .T. ) ;
#51 = CARTESIAN_POINT ( 'NONE',  ( 0.0000000000000000000, 0.0000000000000000000, 0.0000000000000000000 ) ) ;
#52 = CIRCLE ( 'NONE', #199, 9.525000000000000400 ) ;
#53 = CARTESIAN_POINT ( 'NONE',  ( -9.525000000000000400, 1.166476076187854000E-015, 0.0000000000000000000 ) ) ;
#54 = DIRECTION ( 'NONE',  ( 1.000000000000000000, 0.0000000000000000000, 0.0000000000000000000 ) ) ;
#55 = APPROVAL_STATUS ( 'not_yet_approved' ) ;
#56 = APPROVAL_ROLE ( '' ) ;
#57 = VERTEX_POINT ( 'NONE', #79 ) ;
#58 = AXIS2_PLACEMENT_3D ( 'NONE', #217, #70, #116 ) ;
#59 = APPROVAL_DATE_TIME ( #239, #186 ) ;
#60 = ADVANCED_FACE ( 'NONE', ( #78 ), #4, .T. ) ;
#61 = CALENDAR_DATE ( 2021, 14, 7 ) ;
#62 = DIRECTION ( 'NONE',  ( 1.000000000000000000, 0.0000000000000000000, 0.0000000000000000000 ) ) ;
#63 = AXIS2_PLACEMENT_3D ( 'NONE', #2, #138, #193 ) ;
#64 = DIRECTION ( 'NONE',  ( 1.000000000000000000, 0.0000000000000000000, 0.0000000000000000000 ) ) ;
#65 = PERSON_AND_ORGANIZATION ( #137, #34 ) ;
#66 = CIRCLE ( 'NONE', #206, 23.81250000000000000 ) ;
#67 = PLANE ( 'NONE',  #207 ) ;
#68 = DIRECTION ( 'NONE',  ( -0.0000000000000000000, -0.0000000000000000000, 1.000000000000000000 ) ) ;
#69 = DIRECTION ( 'NONE',  ( -0.0000000000000000000, -0.0000000000000000000, 1.000000000000000000 ) ) ;
#70 = DIRECTION ( 'NONE',  ( -0.0000000000000000000, -0.0000000000000000000, 1.000000000000000000 ) ) ;
#71 = CYLINDRICAL_SURFACE ( 'NONE', #159, 23.81250000000000000 ) ;
#72 = ORIENTED_EDGE ( 'NONE', *, *, #232, .F. ) ;
#73 = PERSON_AND_ORGANIZATION_ROLE ( 'classification_officer' ) ;
#74 = ADVANCED_FACE ( 'NONE', ( #146 ), #203, .T. ) ;
#75 = LINE ( 'NONE', #53, #167 ) ;
#76 = ORIENTED_EDGE ( 'NONE', *, *, #110, .F. ) ;
#77 = PERSON_AND_ORGANIZATION ( #137, #34 ) ;
#78 = FACE_OUTER_BOUND ( 'NONE', #196, .T. ) ;
#79 = CARTESIAN_POINT ( 'NONE',  ( -23.81250000000000000, 2.916190190469635100E-015, -57.15000000000000600 ) ) ;
#80 = CARTESIAN_POINT ( 'NONE',  ( -23.81250000000000000, 2.916190190469635100E-015, 0.0000000000000000000 ) ) ;
#81 = DIRECTION ( 'NONE',  ( 1.000000000000000000, 0.0000000000000000000, 0.0000000000000000000 ) ) ;
#82 = DIRECTION ( 'NONE',  ( 1.000000000000000000, 0.0000000000000000000, 0.0000000000000000000 ) ) ;
#83 = DIRECTION ( 'NONE',  ( -0.0000000000000000000, -0.0000000000000000000, 1.000000000000000000 ) ) ;
#84 = CARTESIAN_POINT ( 'NONE',  ( 0.0000000000000000000, 0.0000000000000000000, -57.15000000000000600 ) ) ;
#85 = ORIENTED_EDGE ( 'NONE', *, *, #110, .T. ) ;
#86 = ORIENTED_EDGE ( 'NONE', *, *, #125, .T. ) ;
#87 = DIRECTION ( 'NONE',  ( -0.0000000000000000000, -0.0000000000000000000, 1.000000000000000000 ) ) ;
#88 = CC_DESIGN_SECURITY_CLASSIFICATION ( #255, ( #250 ) ) ;
#89 = CC_DESIGN_DATE_AND_TIME_ASSIGNMENT ( #224, #29, ( #248 ) ) ;
#90 = SECURITY_CLASSIFICATION_LEVEL ( 'unclassified' ) ;
#91 = PERSON_AND_ORGANIZATION ( #137, #34 ) ;
#92 = PERSON_AND_ORGANIZATION ( #137, #34 ) ;
#93 = LINE ( 'NONE', #133, #126 ) ;
#94 = LINE ( 'NONE', #215, #142 ) ;
#95 = DIRECTION ( 'NONE',  ( 1.000000000000000000, 0.0000000000000000000, 0.0000000000000000000 ) ) ;
#96 = CC_DESIGN_APPROVAL ( #120, ( #255 ) ) ;
#97 = DIRECTION ( 'NONE',  ( -0.0000000000000000000, -0.0000000000000000000, 1.000000000000000000 ) ) ;
#98 = CARTESIAN_POINT ( 'NONE',  ( 0.0000000000000000000, 0.0000000000000000000, -44.45000000000000300 ) ) ;
#99 = CARTESIAN_POINT ( 'NONE',  ( 0.0000000000000000000, 0.0000000000000000000, -44.45000000000000300 ) ) ;
#100 = APPROVAL_DATE_TIME ( #166, #120 ) ;
#101 = DIRECTION ( 'NONE',  ( 0.0000000000000000000, 0.0000000000000000000, -1.000000000000000000 ) ) ;
#102 = ORIENTED_EDGE ( 'NONE', *, *, #155, .T. ) ;
#103 =( NAMED_UNIT ( * ) SI_UNIT ( $, .STERADIAN. ) SOLID_ANGLE_UNIT ( ) );
#104 = APPLICATION_PROTOCOL_DEFINITION ( 'international standard', 'config_control_design', 1994, #198 ) ;
#105 = DIRECTION ( 'NONE',  ( 0.0000000000000000000, 0.0000000000000000000, 1.000000000000000000 ) ) ;
#106 = APPLICATION_PROTOCOL_DEFINITION ( 'international standard', 'config_control_design', 1994, #161 ) ;
#107 = APPROVAL_STATUS ( 'not_yet_approved' ) ;
#108 = EDGE_LOOP ( 'NONE', ( #122, #85, #205, #234 ) ) ;
#109 = AXIS2_PLACEMENT_3D ( 'NONE', #47, #17, #62 ) ;
#110 = EDGE_CURVE ( 'NONE', #57, #229, #194, .T. ) ;
#111 = PERSON_AND_ORGANIZATION ( #137, #34 ) ;
#112 = EDGE_LOOP ( 'NONE', ( #86, #182, #188, #245 ) ) ;
#113 = CYLINDRICAL_SURFACE ( 'NONE', #58, 23.81250000000000000 ) ;
#114 = AXIS2_PLACEMENT_3D ( 'NONE', #190, #42, #132 ) ;
#115 = ORIENTED_EDGE ( 'NONE', *, *, #252, .F. ) ;
#116 = DIRECTION ( 'NONE',  ( 1.000000000000000000, 0.0000000000000000000, 0.0000000000000000000 ) ) ;
#117 = CARTESIAN_POINT ( 'NONE',  ( 0.0000000000000000000, 0.0000000000000000000, 0.0000000000000000000 ) ) ;
#118 = APPROVAL_DATE_TIME ( #18, #7 ) ;
#119 = DIRECTION ( 'NONE',  ( 1.000000000000000000, 0.0000000000000000000, 0.0000000000000000000 ) ) ;
#120 = APPROVAL ( #107, 'UNSPECIFIED' ) ;
#121 = APPROVAL_ROLE ( '' ) ;
#122 = ORIENTED_EDGE ( 'NONE', *, *, #252, .T. ) ;
#123 = APPROVAL_STATUS ( 'not_yet_approved' ) ;
#124 = LOCAL_TIME ( 13, 14, 23.00000000000000000, #148 ) ;
#125 = EDGE_CURVE ( 'NONE', #177, #3, #52, .T. ) ;
#126 = VECTOR ( 'NONE', #83, 1000.000000000000000 ) ;
#127 = CALENDAR_DATE ( 2021, 14, 7 ) ;
#128 = ORIENTED_EDGE ( 'NONE', *, *, #216, .F. ) ;
#129 = ORIENTED_EDGE ( 'NONE', *, *, #45, .T. ) ;
#130 = EDGE_CURVE ( 'NONE', #177, #32, #94, .T. ) ;
#131 = SHAPE_DEFINITION_REPRESENTATION ( #40, #44 ) ;
#132 = DIRECTION ( 'NONE',  ( -1.000000000000000000, 0.0000000000000000000, -0.0000000000000000000 ) ) ;
#133 = CARTESIAN_POINT ( 'NONE',  ( 23.81250000000000000, 0.0000000000000000000, 0.0000000000000000000 ) ) ;
#134 = CALENDAR_DATE ( 2021, 14, 7 ) ;
#135 = VERTEX_POINT ( 'NONE', #221 ) ;
#136 = ORIENTED_EDGE ( 'NONE', *, *, #125, .F. ) ;
#137 = PERSON ( 'UNSPECIFIED', 'UNSPECIFIED', 'UNSPECIFIED', ('UNSPECIFIED'), ('UNSPECIFIED'), ('UNSPECIFIED') ) ;
#138 = DIRECTION ( 'NONE',  ( -0.0000000000000000000, -0.0000000000000000000, 1.000000000000000000 ) ) ;
#139 = PLANE ( 'NONE',  #235 ) ;
#140 = DATE_TIME_ROLE ( 'classification_date' ) ;
#141 = EDGE_CURVE ( 'NONE', #57, #168, #253, .T. ) ;
#142 = VECTOR ( 'NONE', #97, 1000.000000000000000 ) ;
#143 = VECTOR ( 'NONE', #172, 1000.000000000000000 ) ;
#144 = UNCERTAINTY_MEASURE_WITH_UNIT (LENGTH_MEASURE( 1.000000000000000100E-005 ), #22, 'distance_accuracy_value', 'NONE');
#145 = CALENDAR_DATE ( 2021, 14, 7 ) ;
#146 = FACE_OUTER_BOUND ( 'NONE', #112, .T. ) ;
#147 = FACE_OUTER_BOUND ( 'NONE', #170, .T. ) ;
#148 = COORDINATED_UNIVERSAL_TIME_OFFSET ( 8, 0, .AHEAD. ) ;
#149 = FACE_BOUND ( 'NONE', #162, .T. ) ;
#150 = AXIS2_PLACEMENT_3D ( 'NONE', #49, #23, #195 ) ;
#151 = AXIS2_PLACEMENT_3D ( 'NONE', #5, #105, #64 ) ;
#152 = DESIGN_CONTEXT ( 'detailed design', #161, 'design' ) ;
#153 = CALENDAR_DATE ( 2021, 14, 7 ) ;
#154 = CARTESIAN_POINT ( 'NONE',  ( 0.0000000000000000000, 23.81250000000000000, -57.15000000000000600 ) ) ;
#155 = EDGE_CURVE ( 'NONE', #168, #135, #93, .T. ) ;
#156 = CARTESIAN_POINT ( 'NONE',  ( 9.525000000000000400, 0.0000000000000000000, -44.45000000000000300 ) ) ;
#157 = AXIS2_PLACEMENT_3D ( 'NONE', #99, #69, #81 ) ;
#158 = MECHANICAL_CONTEXT ( 'NONE', #198, 'mechanical' ) ;
#159 = AXIS2_PLACEMENT_3D ( 'NONE', #117, #222, #54 ) ;
#160 = COORDINATED_UNIVERSAL_TIME_OFFSET ( 8, 0, .AHEAD. ) ;
#161 = APPLICATION_CONTEXT ( 'configuration controlled 3d designs of mechanical parts and assemblies' ) ;
#162 = EDGE_LOOP ( 'NONE', ( #136, #31 ) ) ;
#163 = LOCAL_TIME ( 13, 14, 23.00000000000000000, #160 ) ;
#164 = CIRCLE ( 'NONE', #185, 23.81250000000000000 ) ;
#165 = CC_DESIGN_PERSON_AND_ORGANIZATION_ASSIGNMENT ( #204, #179, ( #247 ) ) ;
#166 = DATE_AND_TIME ( #145, #163 ) ;
#167 = VECTOR ( 'NONE', #68, 1000.000000000000000 ) ;
#168 = VERTEX_POINT ( 'NONE', #19 ) ;
#169 = EDGE_CURVE ( 'NONE', #32, #249, #213, .T. ) ;
#170 = EDGE_LOOP ( 'NONE', ( #115, #240 ) ) ;
#171 = CARTESIAN_POINT ( 'NONE',  ( -9.525000000000000400, 1.166476076187854000E-015, -44.45000000000000300 ) ) ;
#172 = DIRECTION ( 'NONE',  ( -0.0000000000000000000, -0.0000000000000000000, 1.000000000000000000 ) ) ;
#173 = DIRECTION ( 'NONE',  ( 1.000000000000000000, 0.0000000000000000000, 0.0000000000000000000 ) ) ;
#174 = CARTESIAN_POINT ( 'NONE',  ( 0.0000000000000000000, 0.0000000000000000000, 0.0000000000000000000 ) ) ;
#175 = DIRECTION ( 'NONE',  ( 1.000000000000000000, 0.0000000000000000000, 0.0000000000000000000 ) ) ;
#176 = DIRECTION ( 'NONE',  ( 1.000000000000000000, 0.0000000000000000000, 0.0000000000000000000 ) ) ;
#177 = VERTEX_POINT ( 'NONE', #156 ) ;
#178 =( NAMED_UNIT ( * ) PLANE_ANGLE_UNIT ( ) SI_UNIT ( $, .RADIAN. ) );
#179 = PERSON_AND_ORGANIZATION_ROLE ( 'design_owner' ) ;
#180 = CIRCLE ( 'NONE', #36, 9.525000000000000400 ) ;
#181 = EDGE_CURVE ( 'NONE', #3, #177, #251, .T. ) ;
#182 = ORIENTED_EDGE ( 'NONE', *, *, #242, .T. ) ;
#183 = LOCAL_TIME ( 13, 14, 23.00000000000000000, #246 ) ;
#184 = ORIENTED_EDGE ( 'NONE', *, *, #169, .T. ) ;
#185 = AXIS2_PLACEMENT_3D ( 'NONE', #84, #87, #173 ) ;
#186 = APPROVAL ( #123, 'UNSPECIFIED' ) ;
#187 = PERSON_AND_ORGANIZATION ( #137, #34 ) ;
#188 = ORIENTED_EDGE ( 'NONE', *, *, #169, .F. ) ;
#189 = EDGE_LOOP ( 'NONE', ( #129, #50 ) ) ;
#190 = CARTESIAN_POINT ( 'NONE',  ( 0.0000000000000000000, 0.0000000000000000000, 0.0000000000000000000 ) ) ;
#191 = DIRECTION ( 'NONE',  ( -0.0000000000000000000, -0.0000000000000000000, 1.000000000000000000 ) ) ;
#192 = CC_DESIGN_PERSON_AND_ORGANIZATION_ASSIGNMENT ( #77, #11, ( #248 ) ) ;
#193 = DIRECTION ( 'NONE',  ( 1.000000000000000000, 0.0000000000000000000, 0.0000000000000000000 ) ) ;
#194 = LINE ( 'NONE', #80, #143 ) ;
#195 = DIRECTION ( 'NONE',  ( 1.000000000000000000, 0.0000000000000000000, 0.0000000000000000000 ) ) ;
#196 = EDGE_LOOP ( 'NONE', ( #218, #39, #14, #72 ) ) ;
#197 = CARTESIAN_POINT ( 'NONE',  ( -9.525000000000000400, 1.166476076187854000E-015, 0.0000000000000000000 ) ) ;
#198 = APPLICATION_CONTEXT ( 'configuration controlled 3d designs of mechanical parts and assemblies' ) ;
#199 = AXIS2_PLACEMENT_3D ( 'NONE', #98, #244, #176 ) ;
#200 = LOCAL_TIME ( 13, 14, 23.00000000000000000, #25 ) ;
#201 =( GEOMETRIC_REPRESENTATION_CONTEXT ( 3 ) GLOBAL_UNCERTAINTY_ASSIGNED_CONTEXT ( ( #144 ) ) GLOBAL_UNIT_ASSIGNED_CONTEXT ( ( #22, #178, #103 ) ) REPRESENTATION_CONTEXT ( 'NONE', 'WORKASPACE' ) );
#202 = APPROVAL_PERSON_ORGANIZATION ( #65, #7, #121 ) ;
#203 = CYLINDRICAL_SURFACE ( 'NONE', #6, 9.525000000000000400 ) ;
#204 = PERSON_AND_ORGANIZATION ( #137, #34 ) ;
#205 = ORIENTED_EDGE ( 'NONE', *, *, #45, .F. ) ;
#206 = AXIS2_PLACEMENT_3D ( 'NONE', #21, #214, #95 ) ;
#207 = AXIS2_PLACEMENT_3D ( 'NONE', #28, #101, #220 ) ;
#208 = ADVANCED_FACE ( 'NONE', ( #147 ), #139, .F. ) ;
#209 = MANIFOLD_SOLID_BREP ( '±ÛÂà1', #26 ) ;
#210 = LOCAL_TIME ( 13, 14, 23.00000000000000000, #10 ) ;
#211 = ORIENTED_EDGE ( 'NONE', *, *, #232, .T. ) ;
#212 = PERSON_AND_ORGANIZATION ( #137, #34 ) ;
#213 = CIRCLE ( 'NONE', #226, 9.525000000000000400 ) ;
#214 = DIRECTION ( 'NONE',  ( -0.0000000000000000000, -0.0000000000000000000, 1.000000000000000000 ) ) ;
#215 = CARTESIAN_POINT ( 'NONE',  ( 9.525000000000000400, 0.0000000000000000000, 0.0000000000000000000 ) ) ;
#216 = EDGE_CURVE ( 'NONE', #229, #135, #243, .T. ) ;
#217 = CARTESIAN_POINT ( 'NONE',  ( 0.0000000000000000000, 0.0000000000000000000, 0.0000000000000000000 ) ) ;
#218 = ORIENTED_EDGE ( 'NONE', *, *, #242, .F. ) ;
#219 = CARTESIAN_POINT ( 'NONE',  ( 9.525000000000000400, 0.0000000000000000000, 0.0000000000000000000 ) ) ;
#220 = DIRECTION ( 'NONE',  ( -1.000000000000000000, 0.0000000000000000000, -0.0000000000000000000 ) ) ;
#221 = CARTESIAN_POINT ( 'NONE',  ( 23.81250000000000000, 0.0000000000000000000, -44.45000000000000300 ) ) ;
#222 = DIRECTION ( 'NONE',  ( -0.0000000000000000000, -0.0000000000000000000, 1.000000000000000000 ) ) ;
#223 = CARTESIAN_POINT ( 'NONE',  ( 0.0000000000000000000, 0.0000000000000000000, 0.0000000000000000000 ) ) ;
#224 = DATE_AND_TIME ( #153, #210 ) ;
#225 = PERSON_AND_ORGANIZATION_ROLE ( 'creator' ) ;
#226 = AXIS2_PLACEMENT_3D ( 'NONE', #223, #24, #119 ) ;
#227 = APPROVAL_PERSON_ORGANIZATION ( #111, #120, #56 ) ;
#228 = APPROVAL_ROLE ( '' ) ;
#229 = VERTEX_POINT ( 'NONE', #8 ) ;
#230 = PERSON_AND_ORGANIZATION_ROLE ( 'design_supplier' ) ;
#231 = ADVANCED_FACE ( 'NONE', ( #238 ), #113, .T. ) ;
#232 = EDGE_CURVE ( 'NONE', #249, #32, #180, .T. ) ;
#233 = DATE_AND_TIME ( #134, #200 ) ;
#234 = ORIENTED_EDGE ( 'NONE', *, *, #155, .F. ) ;
#235 = AXIS2_PLACEMENT_3D ( 'NONE', #154, #48, #9 ) ;
#236 = ADVANCED_FACE ( 'NONE', ( #27 ), #71, .T. ) ;
#237 = ADVANCED_FACE ( 'NONE', ( #149, #30 ), #67, .F. ) ;
#238 = FACE_OUTER_BOUND ( 'NONE', #37, .T. ) ;
#239 = DATE_AND_TIME ( #61, #183 ) ;
#240 = ORIENTED_EDGE ( 'NONE', *, *, #141, .F. ) ;
#241 = CC_DESIGN_APPROVAL ( #186, ( #248 ) ) ;
#242 = EDGE_CURVE ( 'NONE', #3, #249, #75, .T. ) ;
#243 = CIRCLE ( 'NONE', #63, 23.81250000000000000 ) ;
#244 = DIRECTION ( 'NONE',  ( -0.0000000000000000000, -0.0000000000000000000, 1.000000000000000000 ) ) ;
#245 = ORIENTED_EDGE ( 'NONE', *, *, #130, .F. ) ;
#246 = COORDINATED_UNIVERSAL_TIME_OFFSET ( 8, 0, .AHEAD. ) ;
#247 = PRODUCT ( 'STP-201-021-4A480-001(WF-1.5-1.75)', 'STP-201-021-4A480-001(WF-1.5-1.75)', '', ( #158 ) ) ;
#248 = PRODUCT_DEFINITION ( 'UNKNOWN', '', #250, #152 ) ;
#249 = VERTEX_POINT ( 'NONE', #197 ) ;
#250 = PRODUCT_DEFINITION_FORMATION_WITH_SPECIFIED_SOURCE ( 'ANY', '', #247, .NOT_KNOWN. ) ;
#251 = CIRCLE ( 'NONE', #157, 9.525000000000000400 ) ;
#252 = EDGE_CURVE ( 'NONE', #168, #57, #164, .T. ) ;
#253 = CIRCLE ( 'NONE', #150, 23.81250000000000000 ) ;
#254 = EDGE_LOOP ( 'NONE', ( #184, #211 ) ) ;
#255 = SECURITY_CLASSIFICATION ( '', '', #90 ) ;
ENDSEC;
END-ISO-10303-21;
