ISO-10303-21;
HEADER;
FILE_DESCRIPTION (( 'STEP AP203' ),
    '1' );
FILE_NAME ('STP-201-021-4A240-001(WF-0.75-1.5).STEP',
    '2021-07-14T05:11:06',
    ( '' ),
    ( '' ),
    'SwSTEP 2.0',
    'SolidWorks 2017',
    '' );
FILE_SCHEMA (( 'CONFIG_CONTROL_DESIGN' ));
ENDSEC;

DATA;
#1 = PERSON_AND_ORGANIZATION_ROLE ( 'classification_officer' ) ;
#2 = CYLINDRICAL_SURFACE ( 'NONE', #125, 11.11250000000000100 ) ;
#3 = ORIENTED_EDGE ( 'NONE', *, *, #221, .T. ) ;
#4 = ORIENTED_EDGE ( 'NONE', *, *, #242, .T. ) ;
#5 = DIRECTION ( 'NONE',  ( -0.0000000000000000000, -0.0000000000000000000, 1.000000000000000000 ) ) ;
#6 = PRODUCT_DEFINITION ( 'UNKNOWN', '', #176, #250 ) ;
#7 = CALENDAR_DATE ( 2021, 14, 7 ) ;
#8 = CARTESIAN_POINT ( 'NONE',  ( 0.0000000000000000000, 4.762500000000000200, -38.10000000000000100 ) ) ;
#9 = CALENDAR_DATE ( 2021, 14, 7 ) ;
#10 = CARTESIAN_POINT ( 'NONE',  ( 11.11250000000000100, 0.0000000000000000000, -38.10000000000000100 ) ) ;
#11 = FACE_OUTER_BOUND ( 'NONE', #92, .T. ) ;
#12 = CARTESIAN_POINT ( 'NONE',  ( 0.0000000000000000000, 0.0000000000000000000, -38.10000000000000100 ) ) ;
#13 = ORIENTED_EDGE ( 'NONE', *, *, #205, .T. ) ;
#14 = DIRECTION ( 'NONE',  ( -0.0000000000000000000, -0.0000000000000000000, 1.000000000000000000 ) ) ;
#15 = AXIS2_PLACEMENT_3D ( 'NONE', #22, #39, #124 ) ;
#16 = CARTESIAN_POINT ( 'NONE',  ( 0.0000000000000000000, 0.0000000000000000000, -47.49799999999999800 ) ) ;
#17 = CALENDAR_DATE ( 2021, 14, 7 ) ;
#18 = DIRECTION ( 'NONE',  ( 1.000000000000000000, 0.0000000000000000000, 0.0000000000000000000 ) ) ;
#19 = APPLICATION_PROTOCOL_DEFINITION ( 'international standard', 'config_control_design', 1994, #102 ) ;
#20 = DIRECTION ( 'NONE',  ( -0.0000000000000000000, -0.0000000000000000000, 1.000000000000000000 ) ) ;
#21 = AXIS2_PLACEMENT_3D ( 'NONE', #16, #197, #183 ) ;
#22 = CARTESIAN_POINT ( 'NONE',  ( 0.0000000000000000000, 0.0000000000000000000, 0.0000000000000000000 ) ) ;
#23 = APPROVAL ( #56, 'UNSPECIFIED' ) ;
#24 = ADVANCED_BREP_SHAPE_REPRESENTATION ( 'STP-201-021-4A240-001(WF-0.75-1.5)', ( #211, #15 ), #238 ) ;
#25 = EDGE_CURVE ( 'NONE', #128, #33, #155, .T. ) ;
#26 = ORIENTED_EDGE ( 'NONE', *, *, #163, .F. ) ;
#27 = PERSON_AND_ORGANIZATION ( #154, #149 ) ;
#28 = ORIENTED_EDGE ( 'NONE', *, *, #221, .F. ) ;
#29 = CIRCLE ( 'NONE', #21, 11.11250000000000100 ) ;
#30 = CARTESIAN_POINT ( 'NONE',  ( 0.0000000000000000000, 0.0000000000000000000, 0.0000000000000000000 ) ) ;
#31 = LOCAL_TIME ( 13, 11, 6.000000000000000000, #77 ) ;
#32 = CARTESIAN_POINT ( 'NONE',  ( 0.0000000000000000000, 11.11250000000000100, -47.49799999999999800 ) ) ;
#33 = VERTEX_POINT ( 'NONE', #138 ) ;
#34 = EDGE_LOOP ( 'NONE', ( #121, #3, #42, #237 ) ) ;
#35 = CARTESIAN_POINT ( 'NONE',  ( 0.0000000000000000000, 0.0000000000000000000, 0.0000000000000000000 ) ) ;
#36 = CC_DESIGN_APPROVAL ( #23, ( #6 ) ) ;
#37 = LOCAL_TIME ( 13, 11, 6.000000000000000000, #103 ) ;
#38 =( NAMED_UNIT ( * ) PLANE_ANGLE_UNIT ( ) SI_UNIT ( $, .RADIAN. ) );
#39 = DIRECTION ( 'NONE',  ( 0.0000000000000000000, 0.0000000000000000000, 1.000000000000000000 ) ) ;
#40 = COORDINATED_UNIVERSAL_TIME_OFFSET ( 8, 0, .AHEAD. ) ;
#41 = EDGE_LOOP ( 'NONE', ( #79, #88, #13, #160 ) ) ;
#42 = ORIENTED_EDGE ( 'NONE', *, *, #163, .T. ) ;
#43 = DATE_TIME_ROLE ( 'classification_date' ) ;
#44 = AXIS2_PLACEMENT_3D ( 'NONE', #35, #53, #185 ) ;
#45 = CC_DESIGN_PERSON_AND_ORGANIZATION_ASSIGNMENT ( #173, #188, ( #6 ) ) ;
#46 = EDGE_LOOP ( 'NONE', ( #4, #135 ) ) ;
#47 = DIRECTION ( 'NONE',  ( 1.000000000000000000, 0.0000000000000000000, 0.0000000000000000000 ) ) ;
#48 = ADVANCED_FACE ( 'NONE', ( #246 ), #175, .T. ) ;
#49 = SECURITY_CLASSIFICATION ( '', '', #236 ) ;
#50 = DIRECTION ( 'NONE',  ( -0.0000000000000000000, -0.0000000000000000000, 1.000000000000000000 ) ) ;
#51 = PERSON_AND_ORGANIZATION ( #154, #149 ) ;
#52 = ORIENTED_EDGE ( 'NONE', *, *, #74, .F. ) ;
#53 = DIRECTION ( 'NONE',  ( -0.0000000000000000000, -0.0000000000000000000, 1.000000000000000000 ) ) ;
#54 = DIRECTION ( 'NONE',  ( 1.000000000000000000, 0.0000000000000000000, 0.0000000000000000000 ) ) ;
#55 = DATE_AND_TIME ( #7, #217 ) ;
#56 = APPROVAL_STATUS ( 'not_yet_approved' ) ;
#57 = APPROVAL_ROLE ( '' ) ;
#58 = CARTESIAN_POINT ( 'NONE',  ( 0.0000000000000000000, 0.0000000000000000000, 0.0000000000000000000 ) ) ;
#59 = FACE_OUTER_BOUND ( 'NONE', #194, .T. ) ;
#60 = DATE_AND_TIME ( #148, #31 ) ;
#61 = CC_DESIGN_PERSON_AND_ORGANIZATION_ASSIGNMENT ( #215, #72, ( #176 ) ) ;
#62 = ORIENTED_EDGE ( 'NONE', *, *, #25, .T. ) ;
#63 = COORDINATED_UNIVERSAL_TIME_OFFSET ( 8, 0, .AHEAD. ) ;
#64 = DIRECTION ( 'NONE',  ( -0.0000000000000000000, -0.0000000000000000000, 1.000000000000000000 ) ) ;
#65 = FACE_OUTER_BOUND ( 'NONE', #34, .T. ) ;
#66 = CARTESIAN_POINT ( 'NONE',  ( -11.11250000000000100, 1.360888755552496400E-015, 0.0000000000000000000 ) ) ;
#67 = LOCAL_TIME ( 13, 11, 6.000000000000000000, #40 ) ;
#68 = CIRCLE ( 'NONE', #130, 4.762500000000000200 ) ;
#69 = DIRECTION ( 'NONE',  ( 1.000000000000000000, 0.0000000000000000000, 0.0000000000000000000 ) ) ;
#70 = CARTESIAN_POINT ( 'NONE',  ( 0.0000000000000000000, 0.0000000000000000000, -38.10000000000000100 ) ) ;
#71 = DIRECTION ( 'NONE',  ( -0.0000000000000000000, -0.0000000000000000000, 1.000000000000000000 ) ) ;
#72 = PERSON_AND_ORGANIZATION_ROLE ( 'creator' ) ;
#73 = ORIENTED_EDGE ( 'NONE', *, *, #172, .T. ) ;
#74 = EDGE_CURVE ( 'NONE', #94, #128, #68, .T. ) ;
#75 = ORIENTED_EDGE ( 'NONE', *, *, #189, .F. ) ;
#76 = CC_DESIGN_SECURITY_CLASSIFICATION ( #49, ( #176 ) ) ;
#77 = COORDINATED_UNIVERSAL_TIME_OFFSET ( 8, 0, .AHEAD. ) ;
#78 = AXIS2_PLACEMENT_3D ( 'NONE', #30, #64, #97 ) ;
#79 = ORIENTED_EDGE ( 'NONE', *, *, #25, .F. ) ;
#80 = VERTEX_POINT ( 'NONE', #114 ) ;
#81 = AXIS2_PLACEMENT_3D ( 'NONE', #8, #139, #118 ) ;
#82 = APPROVAL_DATE_TIME ( #131, #209 ) ;
#83 = EDGE_CURVE ( 'NONE', #128, #94, #192, .T. ) ;
#84 = ADVANCED_FACE ( 'NONE', ( #225, #98 ), #196, .F. ) ;
#85 = CARTESIAN_POINT ( 'NONE',  ( 0.0000000000000000000, 0.0000000000000000000, 0.0000000000000000000 ) ) ;
#86 = DIRECTION ( 'NONE',  ( 0.0000000000000000000, 0.0000000000000000000, -1.000000000000000000 ) ) ;
#87 = DIRECTION ( 'NONE',  ( 1.000000000000000000, 0.0000000000000000000, 0.0000000000000000000 ) ) ;
#88 = ORIENTED_EDGE ( 'NONE', *, *, #83, .T. ) ;
#89 = CARTESIAN_POINT ( 'NONE',  ( 0.0000000000000000000, 0.0000000000000000000, -47.49799999999999800 ) ) ;
#90 = APPROVAL_STATUS ( 'not_yet_approved' ) ;
#91 = MECHANICAL_CONTEXT ( 'NONE', #234, 'mechanical' ) ;
#92 = EDGE_LOOP ( 'NONE', ( #214, #73, #75, #26 ) ) ;
#93 = VECTOR ( 'NONE', #162, 1000.000000000000000 ) ;
#94 = VERTEX_POINT ( 'NONE', #136 ) ;
#95 = AXIS2_PLACEMENT_3D ( 'NONE', #245, #120, #87 ) ;
#96 = DIRECTION ( 'NONE',  ( -0.0000000000000000000, -0.0000000000000000000, 1.000000000000000000 ) ) ;
#97 = DIRECTION ( 'NONE',  ( 1.000000000000000000, 0.0000000000000000000, 0.0000000000000000000 ) ) ;
#98 = FACE_OUTER_BOUND ( 'NONE', #229, .T. ) ;
#99 = CC_DESIGN_APPROVAL ( #119, ( #49 ) ) ;
#100 = CARTESIAN_POINT ( 'NONE',  ( 0.0000000000000000000, 0.0000000000000000000, 0.0000000000000000000 ) ) ;
#101 = DIRECTION ( 'NONE',  ( -0.0000000000000000000, -0.0000000000000000000, 1.000000000000000000 ) ) ;
#102 = APPLICATION_CONTEXT ( 'configuration controlled 3d designs of mechanical parts and assemblies' ) ;
#103 = COORDINATED_UNIVERSAL_TIME_OFFSET ( 8, 0, .AHEAD. ) ;
#104 = CARTESIAN_POINT ( 'NONE',  ( 0.0000000000000000000, 0.0000000000000000000, 0.0000000000000000000 ) ) ;
#105 = ORIENTED_EDGE ( 'NONE', *, *, #219, .T. ) ;
#106 = APPROVAL_ROLE ( '' ) ;
#107 = FACE_OUTER_BOUND ( 'NONE', #46, .T. ) ;
#108 = UNCERTAINTY_MEASURE_WITH_UNIT (LENGTH_MEASURE( 1.000000000000000100E-005 ), #169, 'distance_accuracy_value', 'NONE');
#109 = CIRCLE ( 'NONE', #152, 11.11250000000000100 ) ;
#110 = VECTOR ( 'NONE', #5, 1000.000000000000000 ) ;
#111 = AXIS2_PLACEMENT_3D ( 'NONE', #251, #147, #18 ) ;
#112 = COORDINATED_UNIVERSAL_TIME_OFFSET ( 8, 0, .AHEAD. ) ;
#113 = CARTESIAN_POINT ( 'NONE',  ( -4.762500000000000200, 5.832380380939270100E-016, 0.0000000000000000000 ) ) ;
#114 = CARTESIAN_POINT ( 'NONE',  ( -11.11250000000000100, 1.360888755552496400E-015, -38.10000000000000100 ) ) ;
#115 = PRODUCT ( 'STP-201-021-4A240-001(WF-0.75-1.5)', 'STP-201-021-4A240-001(WF-0.75-1.5)', '', ( #91 ) ) ;
#116 = VERTEX_POINT ( 'NONE', #202 ) ;
#117 = CARTESIAN_POINT ( 'NONE',  ( 11.11250000000000100, 0.0000000000000000000, 0.0000000000000000000 ) ) ;
#118 = DIRECTION ( 'NONE',  ( -1.000000000000000000, 0.0000000000000000000, -0.0000000000000000000 ) ) ;
#119 = APPROVAL ( #129, 'UNSPECIFIED' ) ;
#120 = DIRECTION ( 'NONE',  ( -0.0000000000000000000, -0.0000000000000000000, 1.000000000000000000 ) ) ;
#121 = ORIENTED_EDGE ( 'NONE', *, *, #172, .F. ) ;
#122 = VECTOR ( 'NONE', #232, 1000.000000000000000 ) ;
#123 = DIRECTION ( 'NONE',  ( 1.000000000000000000, 0.0000000000000000000, 0.0000000000000000000 ) ) ;
#124 = DIRECTION ( 'NONE',  ( 1.000000000000000000, 0.0000000000000000000, 0.0000000000000000000 ) ) ;
#125 = AXIS2_PLACEMENT_3D ( 'NONE', #104, #20, #186 ) ;
#126 = DATE_AND_TIME ( #243, #67 ) ;
#127 = ORIENTED_EDGE ( 'NONE', *, *, #205, .F. ) ;
#128 = VERTEX_POINT ( 'NONE', #164 ) ;
#129 = APPROVAL_STATUS ( 'not_yet_approved' ) ;
#130 = AXIS2_PLACEMENT_3D ( 'NONE', #195, #96, #47 ) ;
#131 = DATE_AND_TIME ( #17, #187 ) ;
#132 = CIRCLE ( 'NONE', #146, 11.11250000000000100 ) ;
#133 = AXIS2_PLACEMENT_3D ( 'NONE', #85, #165, #69 ) ;
#134 = EDGE_LOOP ( 'NONE', ( #52, #191 ) ) ;
#135 = ORIENTED_EDGE ( 'NONE', *, *, #198, .T. ) ;
#136 = CARTESIAN_POINT ( 'NONE',  ( 4.762500000000000200, 0.0000000000000000000, -38.10000000000000100 ) ) ;
#137 = ADVANCED_FACE ( 'NONE', ( #59 ), #171, .T. ) ;
#138 = CARTESIAN_POINT ( 'NONE',  ( -4.762500000000000200, 5.832380380939270100E-016, 0.0000000000000000000 ) ) ;
#139 = DIRECTION ( 'NONE',  ( 0.0000000000000000000, 0.0000000000000000000, -1.000000000000000000 ) ) ;
#140 = PRODUCT_DEFINITION_SHAPE ( 'NONE', 'NONE',  #6 ) ;
#141 = AXIS2_PLACEMENT_3D ( 'NONE', #32, #166, #227 ) ;
#142 = VERTEX_POINT ( 'NONE', #226 ) ;
#143 = PLANE ( 'NONE',  #141 ) ;
#144 = DIRECTION ( 'NONE',  ( -0.0000000000000000000, -0.0000000000000000000, 1.000000000000000000 ) ) ;
#145 = CARTESIAN_POINT ( 'NONE',  ( -11.11250000000000100, 1.360888755552496400E-015, -47.49799999999999800 ) ) ;
#146 = AXIS2_PLACEMENT_3D ( 'NONE', #89, #101, #54 ) ;
#147 = DIRECTION ( 'NONE',  ( -0.0000000000000000000, -0.0000000000000000000, 1.000000000000000000 ) ) ;
#148 = CALENDAR_DATE ( 2021, 14, 7 ) ;
#149 = ORGANIZATION ( 'UNSPECIFIED', 'UNSPECIFIED', '' ) ;
#150 = ORIENTED_EDGE ( 'NONE', *, *, #74, .T. ) ;
#151 = LINE ( 'NONE', #117, #254 ) ;
#152 = AXIS2_PLACEMENT_3D ( 'NONE', #70, #50, #206 ) ;
#153 = DATE_AND_TIME ( #9, #37 ) ;
#154 = PERSON ( 'UNSPECIFIED', 'UNSPECIFIED', 'UNSPECIFIED', ('UNSPECIFIED'), ('UNSPECIFIED'), ('UNSPECIFIED') ) ;
#155 = LINE ( 'NONE', #113, #110 ) ;
#156 = AXIS2_PLACEMENT_3D ( 'NONE', #58, #71, #123 ) ;
#157 = PRODUCT_RELATED_PRODUCT_CATEGORY ( 'detail', '', ( #115 ) ) ;
#158 = PERSON_AND_ORGANIZATION ( #154, #149 ) ;
#159 = ADVANCED_FACE ( 'NONE', ( #203 ), #143, .F. ) ;
#160 = ORIENTED_EDGE ( 'NONE', *, *, #198, .F. ) ;
#161 = CC_DESIGN_DATE_AND_TIME_ASSIGNMENT ( #55, #210, ( #6 ) ) ;
#162 = DIRECTION ( 'NONE',  ( -0.0000000000000000000, -0.0000000000000000000, 1.000000000000000000 ) ) ;
#163 = EDGE_CURVE ( 'NONE', #116, #184, #151, .T. ) ;
#164 = CARTESIAN_POINT ( 'NONE',  ( -4.762500000000000200, 5.832380380939270100E-016, -38.10000000000000100 ) ) ;
#165 = DIRECTION ( 'NONE',  ( -0.0000000000000000000, -0.0000000000000000000, 1.000000000000000000 ) ) ;
#166 = DIRECTION ( 'NONE',  ( 0.0000000000000000000, -0.0000000000000000000, 1.000000000000000000 ) ) ;
#167 = CIRCLE ( 'NONE', #133, 4.762500000000000200 ) ;
#168 = CARTESIAN_POINT ( 'NONE',  ( 4.762500000000000200, 0.0000000000000000000, 0.0000000000000000000 ) ) ;
#169 =( LENGTH_UNIT ( ) NAMED_UNIT ( * ) SI_UNIT ( .MILLI., .METRE. ) );
#170 = PERSON_AND_ORGANIZATION ( #154, #149 ) ;
#171 = CYLINDRICAL_SURFACE ( 'NONE', #95, 4.762500000000000200 ) ;
#172 = EDGE_CURVE ( 'NONE', #244, #80, #201, .T. ) ;
#173 = PERSON_AND_ORGANIZATION ( #154, #149 ) ;
#174 = ORIENTED_EDGE ( 'NONE', *, *, #177, .F. ) ;
#175 = CYLINDRICAL_SURFACE ( 'NONE', #78, 4.762500000000000200 ) ;
#176 = PRODUCT_DEFINITION_FORMATION_WITH_SPECIFIED_SOURCE ( 'ANY', '', #115, .NOT_KNOWN. ) ;
#177 = EDGE_CURVE ( 'NONE', #116, #244, #29, .T. ) ;
#178 = ADVANCED_FACE ( 'NONE', ( #11 ), #230, .T. ) ;
#179 = DIRECTION ( 'NONE',  ( 1.000000000000000000, 0.0000000000000000000, 0.0000000000000000000 ) ) ;
#180 = AXIS2_PLACEMENT_3D ( 'NONE', #12, #14, #179 ) ;
#181 = ORIENTED_EDGE ( 'NONE', *, *, #242, .F. ) ;
#182 = SHAPE_DEFINITION_REPRESENTATION ( #140, #24 ) ;
#183 = DIRECTION ( 'NONE',  ( 1.000000000000000000, 0.0000000000000000000, 0.0000000000000000000 ) ) ;
#184 = VERTEX_POINT ( 'NONE', #10 ) ;
#185 = DIRECTION ( 'NONE',  ( 1.000000000000000000, 0.0000000000000000000, 0.0000000000000000000 ) ) ;
#186 = DIRECTION ( 'NONE',  ( 1.000000000000000000, 0.0000000000000000000, 0.0000000000000000000 ) ) ;
#187 = LOCAL_TIME ( 13, 11, 6.000000000000000000, #63 ) ;
#188 = PERSON_AND_ORGANIZATION_ROLE ( 'creator' ) ;
#189 = EDGE_CURVE ( 'NONE', #184, #80, #109, .T. ) ;
#190 = CC_DESIGN_APPROVAL ( #209, ( #176 ) ) ;
#191 = ORIENTED_EDGE ( 'NONE', *, *, #83, .F. ) ;
#192 = CIRCLE ( 'NONE', #180, 4.762500000000000200 ) ;
#193 = PERSON_AND_ORGANIZATION_ROLE ( 'design_supplier' ) ;
#194 = EDGE_LOOP ( 'NONE', ( #150, #62, #181, #127 ) ) ;
#195 = CARTESIAN_POINT ( 'NONE',  ( 0.0000000000000000000, 0.0000000000000000000, -38.10000000000000100 ) ) ;
#196 = PLANE ( 'NONE',  #81 ) ;
#197 = DIRECTION ( 'NONE',  ( -0.0000000000000000000, -0.0000000000000000000, 1.000000000000000000 ) ) ;
#198 = EDGE_CURVE ( 'NONE', #33, #142, #167, .T. ) ;
#199 = ADVANCED_FACE ( 'NONE', ( #107 ), #231, .F. ) ;
#200 = APPROVAL_PERSON_ORGANIZATION ( #51, #209, #57 ) ;
#201 = LINE ( 'NONE', #66, #93 ) ;
#202 = CARTESIAN_POINT ( 'NONE',  ( 11.11250000000000100, 0.0000000000000000000, -47.49799999999999800 ) ) ;
#203 = FACE_OUTER_BOUND ( 'NONE', #253, .T. ) ;
#204 = CC_DESIGN_PERSON_AND_ORGANIZATION_ASSIGNMENT ( #158, #1, ( #49 ) ) ;
#205 = EDGE_CURVE ( 'NONE', #94, #142, #213, .T. ) ;
#206 = DIRECTION ( 'NONE',  ( 1.000000000000000000, 0.0000000000000000000, 0.0000000000000000000 ) ) ;
#207 = PERSON_AND_ORGANIZATION ( #154, #149 ) ;
#208 =( NAMED_UNIT ( * ) SI_UNIT ( $, .STERADIAN. ) SOLID_ANGLE_UNIT ( ) );
#209 = APPROVAL ( #90, 'UNSPECIFIED' ) ;
#210 = DATE_TIME_ROLE ( 'creation_date' ) ;
#211 = MANIFOLD_SOLID_BREP ( '±ÛÂà1', #220 ) ;
#212 = APPLICATION_PROTOCOL_DEFINITION ( 'international standard', 'config_control_design', 1994, #234 ) ;
#213 = LINE ( 'NONE', #168, #122 ) ;
#214 = ORIENTED_EDGE ( 'NONE', *, *, #177, .T. ) ;
#215 = PERSON_AND_ORGANIZATION ( #154, #149 ) ;
#216 = CC_DESIGN_DATE_AND_TIME_ASSIGNMENT ( #153, #43, ( #49 ) ) ;
#217 = LOCAL_TIME ( 13, 11, 6.000000000000000000, #112 ) ;
#218 = CIRCLE ( 'NONE', #111, 11.11250000000000100 ) ;
#219 = EDGE_CURVE ( 'NONE', #80, #184, #218, .T. ) ;
#220 = CLOSED_SHELL ( 'NONE', ( #178, #137, #199, #48, #84, #224, #159 ) ) ;
#221 = EDGE_CURVE ( 'NONE', #244, #116, #132, .T. ) ;
#222 = CC_DESIGN_PERSON_AND_ORGANIZATION_ASSIGNMENT ( #207, #193, ( #176 ) ) ;
#223 = APPROVAL_PERSON_ORGANIZATION ( #252, #23, #106 ) ;
#224 = ADVANCED_FACE ( 'NONE', ( #65 ), #2, .T. ) ;
#225 = FACE_BOUND ( 'NONE', #134, .T. ) ;
#226 = CARTESIAN_POINT ( 'NONE',  ( 4.762500000000000200, 0.0000000000000000000, 0.0000000000000000000 ) ) ;
#227 = DIRECTION ( 'NONE',  ( 1.000000000000000000, 0.0000000000000000000, 0.0000000000000000000 ) ) ;
#228 = APPROVAL_DATE_TIME ( #126, #23 ) ;
#229 = EDGE_LOOP ( 'NONE', ( #247, #105 ) ) ;
#230 = CYLINDRICAL_SURFACE ( 'NONE', #44, 11.11250000000000100 ) ;
#231 = PLANE ( 'NONE',  #255 ) ;
#232 = DIRECTION ( 'NONE',  ( -0.0000000000000000000, -0.0000000000000000000, 1.000000000000000000 ) ) ;
#233 = APPROVAL_DATE_TIME ( #60, #119 ) ;
#234 = APPLICATION_CONTEXT ( 'configuration controlled 3d designs of mechanical parts and assemblies' ) ;
#235 = PERSON_AND_ORGANIZATION_ROLE ( 'design_owner' ) ;
#236 = SECURITY_CLASSIFICATION_LEVEL ( 'unclassified' ) ;
#237 = ORIENTED_EDGE ( 'NONE', *, *, #219, .F. ) ;
#238 =( GEOMETRIC_REPRESENTATION_CONTEXT ( 3 ) GLOBAL_UNCERTAINTY_ASSIGNED_CONTEXT ( ( #108 ) ) GLOBAL_UNIT_ASSIGNED_CONTEXT ( ( #169, #38, #208 ) ) REPRESENTATION_CONTEXT ( 'NONE', 'WORKASPACE' ) );
#239 = APPROVAL_ROLE ( '' ) ;
#240 = APPROVAL_PERSON_ORGANIZATION ( #170, #119, #239 ) ;
#241 = CIRCLE ( 'NONE', #156, 4.762500000000000200 ) ;
#242 = EDGE_CURVE ( 'NONE', #142, #33, #241, .T. ) ;
#243 = CALENDAR_DATE ( 2021, 14, 7 ) ;
#244 = VERTEX_POINT ( 'NONE', #145 ) ;
#245 = CARTESIAN_POINT ( 'NONE',  ( 0.0000000000000000000, 0.0000000000000000000, 0.0000000000000000000 ) ) ;
#246 = FACE_OUTER_BOUND ( 'NONE', #41, .T. ) ;
#247 = ORIENTED_EDGE ( 'NONE', *, *, #189, .T. ) ;
#248 = CC_DESIGN_PERSON_AND_ORGANIZATION_ASSIGNMENT ( #27, #235, ( #115 ) ) ;
#249 = DIRECTION ( 'NONE',  ( -1.000000000000000000, 0.0000000000000000000, -0.0000000000000000000 ) ) ;
#250 = DESIGN_CONTEXT ( 'detailed design', #102, 'design' ) ;
#251 = CARTESIAN_POINT ( 'NONE',  ( 0.0000000000000000000, 0.0000000000000000000, -38.10000000000000100 ) ) ;
#252 = PERSON_AND_ORGANIZATION ( #154, #149 ) ;
#253 = EDGE_LOOP ( 'NONE', ( #174, #28 ) ) ;
#254 = VECTOR ( 'NONE', #144, 1000.000000000000000 ) ;
#255 = AXIS2_PLACEMENT_3D ( 'NONE', #100, #86, #249 ) ;
ENDSEC;
END-ISO-10303-21;
