ISO-10303-21;
HEADER;
FILE_DESCRIPTION (( 'STEP AP203' ),
    '1' );
FILE_NAME ('STP-5299-035-A16-A32-00(WF-0.5).STEP',
    '2021-07-14T05:06:05',
    ( '' ),
    ( '' ),
    'SwSTEP 2.0',
    'SolidWorks 2017',
    '' );
FILE_SCHEMA (( 'CONFIG_CONTROL_DESIGN' ));
ENDSEC;

DATA;
#1 = DIRECTION ( 'NONE',  ( -0.0000000000000000000, -0.0000000000000000000, 1.000000000000000000 ) ) ;
#2 = PERSON_AND_ORGANIZATION ( #128, #230 ) ;
#3 = LOCAL_TIME ( 13, 6, 5.000000000000000000, #200 ) ;
#4 = DIRECTION ( 'NONE',  ( -0.0000000000000000000, -0.0000000000000000000, 1.000000000000000000 ) ) ;
#5 = ORIENTED_EDGE ( 'NONE', *, *, #38, .F. ) ;
#6 = CARTESIAN_POINT ( 'NONE',  ( -3.174999999999999800, 3.888253587292846100E-016, 0.0000000000000000000 ) ) ;
#7 = APPLICATION_PROTOCOL_DEFINITION ( 'international standard', 'config_control_design', 1994, #72 ) ;
#8 = PERSON_AND_ORGANIZATION_ROLE ( 'design_supplier' ) ;
#9 = APPROVAL_STATUS ( 'not_yet_approved' ) ;
#10 = EDGE_LOOP ( 'NONE', ( #208, #21, #149, #5 ) ) ;
#11 =( NAMED_UNIT ( * ) SI_UNIT ( $, .STERADIAN. ) SOLID_ANGLE_UNIT ( ) );
#12 = EDGE_CURVE ( 'NONE', #171, #115, #219, .T. ) ;
#13 = CALENDAR_DATE ( 2021, 14, 7 ) ;
#14 = CIRCLE ( 'NONE', #155, 3.174999999999999800 ) ;
#15 = ORIENTED_EDGE ( 'NONE', *, *, #95, .F. ) ;
#16 = FACE_OUTER_BOUND ( 'NONE', #124, .T. ) ;
#17 = CYLINDRICAL_SURFACE ( 'NONE', #137, 7.937500000000000000 ) ;
#18 = CIRCLE ( 'NONE', #244, 3.174999999999999800 ) ;
#19 = VECTOR ( 'NONE', #237, 1000.000000000000000 ) ;
#20 = CARTESIAN_POINT ( 'NONE',  ( 0.0000000000000000000, 0.0000000000000000000, 0.0000000000000000000 ) ) ;
#21 = ORIENTED_EDGE ( 'NONE', *, *, #62, .T. ) ;
#22 = CARTESIAN_POINT ( 'NONE',  ( 7.937500000000000000, 0.0000000000000000000, -12.69999999999999900 ) ) ;
#23 = EDGE_CURVE ( 'NONE', #57, #70, #14, .T. ) ;
#24 = CARTESIAN_POINT ( 'NONE',  ( -3.174999999999999800, 3.888253587292846100E-016, 0.0000000000000000000 ) ) ;
#25 = FACE_OUTER_BOUND ( 'NONE', #66, .T. ) ;
#26 = COORDINATED_UNIVERSAL_TIME_OFFSET ( 8, 0, .AHEAD. ) ;
#27 = EDGE_LOOP ( 'NONE', ( #160, #189, #35, #92 ) ) ;
#28 =( LENGTH_UNIT ( ) NAMED_UNIT ( * ) SI_UNIT ( .MILLI., .METRE. ) );
#29 = APPROVAL_ROLE ( '' ) ;
#30 = APPROVAL_ROLE ( '' ) ;
#31 = ORIENTED_EDGE ( 'NONE', *, *, #80, .F. ) ;
#32 = CC_DESIGN_PERSON_AND_ORGANIZATION_ASSIGNMENT ( #193, #94, ( #103 ) ) ;
#33 = LOCAL_TIME ( 13, 6, 5.000000000000000000, #26 ) ;
#34 =( GEOMETRIC_REPRESENTATION_CONTEXT ( 3 ) GLOBAL_UNCERTAINTY_ASSIGNED_CONTEXT ( ( #252 ) ) GLOBAL_UNIT_ASSIGNED_CONTEXT ( ( #28, #108, #11 ) ) REPRESENTATION_CONTEXT ( 'NONE', 'WORKASPACE' ) );
#35 = ORIENTED_EDGE ( 'NONE', *, *, #170, .T. ) ;
#36 = DIRECTION ( 'NONE',  ( 1.000000000000000000, 0.0000000000000000000, 0.0000000000000000000 ) ) ;
#37 = DIRECTION ( 'NONE',  ( 1.000000000000000000, 0.0000000000000000000, 0.0000000000000000000 ) ) ;
#38 = EDGE_CURVE ( 'NONE', #115, #167, #74, .T. ) ;
#39 = PRODUCT_DEFINITION ( 'UNKNOWN', '', #103, #87 ) ;
#40 = COORDINATED_UNIVERSAL_TIME_OFFSET ( 8, 0, .AHEAD. ) ;
#41 = CARTESIAN_POINT ( 'NONE',  ( 0.0000000000000000000, 0.0000000000000000000, 0.0000000000000000000 ) ) ;
#42 = FACE_OUTER_BOUND ( 'NONE', #173, .T. ) ;
#43 = CARTESIAN_POINT ( 'NONE',  ( 0.0000000000000000000, 0.0000000000000000000, -21.33600000000000200 ) ) ;
#44 = CC_DESIGN_DATE_AND_TIME_ASSIGNMENT ( #112, #131, ( #175 ) ) ;
#45 = CALENDAR_DATE ( 2021, 14, 7 ) ;
#46 = DIRECTION ( 'NONE',  ( 0.0000000000000000000, 0.0000000000000000000, -1.000000000000000000 ) ) ;
#47 = DATE_AND_TIME ( #211, #3 ) ;
#48 = ADVANCED_FACE ( 'NONE', ( #42 ), #120, .F. ) ;
#49 = CARTESIAN_POINT ( 'NONE',  ( 0.0000000000000000000, 0.0000000000000000000, 0.0000000000000000000 ) ) ;
#50 = LINE ( 'NONE', #6, #19 ) ;
#51 = EDGE_LOOP ( 'NONE', ( #110, #58 ) ) ;
#52 = ORIENTED_EDGE ( 'NONE', *, *, #38, .T. ) ;
#53 = APPROVAL_DATE_TIME ( #133, #213 ) ;
#54 = PERSON_AND_ORGANIZATION ( #128, #230 ) ;
#55 = CC_DESIGN_SECURITY_CLASSIFICATION ( #175, ( #103 ) ) ;
#56 = DIRECTION ( 'NONE',  ( -0.0000000000000000000, -0.0000000000000000000, 1.000000000000000000 ) ) ;
#57 = VERTEX_POINT ( 'NONE', #235 ) ;
#58 = ORIENTED_EDGE ( 'NONE', *, *, #240, .T. ) ;
#59 = SHAPE_DEFINITION_REPRESENTATION ( #248, #220 ) ;
#60 = DIRECTION ( 'NONE',  ( 1.000000000000000000, 0.0000000000000000000, 0.0000000000000000000 ) ) ;
#61 = CC_DESIGN_APPROVAL ( #186, ( #103 ) ) ;
#62 = EDGE_CURVE ( 'NONE', #171, #177, #228, .T. ) ;
#63 = PERSON_AND_ORGANIZATION ( #128, #230 ) ;
#64 = PERSON_AND_ORGANIZATION ( #128, #230 ) ;
#65 = DIRECTION ( 'NONE',  ( -1.000000000000000000, 0.0000000000000000000, -0.0000000000000000000 ) ) ;
#66 = EDGE_LOOP ( 'NONE', ( #82, #52 ) ) ;
#67 = CARTESIAN_POINT ( 'NONE',  ( 0.0000000000000000000, 0.0000000000000000000, -12.69999999999999900 ) ) ;
#68 = CIRCLE ( 'NONE', #127, 7.937500000000000000 ) ;
#69 = PERSON_AND_ORGANIZATION_ROLE ( 'design_owner' ) ;
#70 = VERTEX_POINT ( 'NONE', #119 ) ;
#71 = AXIS2_PLACEMENT_3D ( 'NONE', #174, #81, #194 ) ;
#72 = APPLICATION_CONTEXT ( 'configuration controlled 3d designs of mechanical parts and assemblies' ) ;
#73 = DIRECTION ( 'NONE',  ( 0.0000000000000000000, 0.0000000000000000000, 1.000000000000000000 ) ) ;
#74 = CIRCLE ( 'NONE', #71, 7.937500000000000000 ) ;
#75 = CIRCLE ( 'NONE', #195, 7.937500000000000000 ) ;
#76 = AXIS2_PLACEMENT_3D ( 'NONE', #226, #225, #254 ) ;
#77 = ORIENTED_EDGE ( 'NONE', *, *, #23, .F. ) ;
#78 = APPROVAL ( #9, 'UNSPECIFIED' ) ;
#79 = COORDINATED_UNIVERSAL_TIME_OFFSET ( 8, 0, .AHEAD. ) ;
#80 = EDGE_CURVE ( 'NONE', #177, #167, #140, .T. ) ;
#81 = DIRECTION ( 'NONE',  ( -0.0000000000000000000, -0.0000000000000000000, 1.000000000000000000 ) ) ;
#82 = ORIENTED_EDGE ( 'NONE', *, *, #153, .T. ) ;
#83 = CARTESIAN_POINT ( 'NONE',  ( 7.937500000000000000, 0.0000000000000000000, 0.0000000000000000000 ) ) ;
#84 = DIRECTION ( 'NONE',  ( -0.0000000000000000000, -0.0000000000000000000, 1.000000000000000000 ) ) ;
#85 = ORIENTED_EDGE ( 'NONE', *, *, #12, .T. ) ;
#86 = CARTESIAN_POINT ( 'NONE',  ( 0.0000000000000000000, 3.174999999999999800, -12.69999999999999900 ) ) ;
#87 = DESIGN_CONTEXT ( 'detailed design', #72, 'design' ) ;
#88 = COORDINATED_UNIVERSAL_TIME_OFFSET ( 8, 0, .AHEAD. ) ;
#89 = APPROVAL_PERSON_ORGANIZATION ( #54, #78, #29 ) ;
#90 = DIRECTION ( 'NONE',  ( -1.000000000000000000, 0.0000000000000000000, -0.0000000000000000000 ) ) ;
#91 = APPLICATION_PROTOCOL_DEFINITION ( 'international standard', 'config_control_design', 1994, #147 ) ;
#92 = ORIENTED_EDGE ( 'NONE', *, *, #240, .F. ) ;
#93 = CC_DESIGN_APPROVAL ( #78, ( #175 ) ) ;
#94 = PERSON_AND_ORGANIZATION_ROLE ( 'creator' ) ;
#95 = EDGE_CURVE ( 'NONE', #232, #134, #18, .T. ) ;
#96 = CALENDAR_DATE ( 2021, 14, 7 ) ;
#97 = CC_DESIGN_PERSON_AND_ORGANIZATION_ASSIGNMENT ( #64, #8, ( #103 ) ) ;
#98 = AXIS2_PLACEMENT_3D ( 'NONE', #49, #73, #166 ) ;
#99 = DIRECTION ( 'NONE',  ( -0.0000000000000000000, -0.0000000000000000000, 1.000000000000000000 ) ) ;
#100 = CYLINDRICAL_SURFACE ( 'NONE', #165, 7.937500000000000000 ) ;
#101 = MANIFOLD_SOLID_BREP ( '±ÛÂà1', #169 ) ;
#102 = DIRECTION ( 'NONE',  ( 1.000000000000000000, 0.0000000000000000000, 0.0000000000000000000 ) ) ;
#103 = PRODUCT_DEFINITION_FORMATION_WITH_SPECIFIED_SOURCE ( 'ANY', '', #191, .NOT_KNOWN. ) ;
#104 = PLANE ( 'NONE',  #172 ) ;
#105 = CARTESIAN_POINT ( 'NONE',  ( 3.174999999999999800, 0.0000000000000000000, 0.0000000000000000000 ) ) ;
#106 = DIRECTION ( 'NONE',  ( -0.0000000000000000000, -0.0000000000000000000, 1.000000000000000000 ) ) ;
#107 = CARTESIAN_POINT ( 'NONE',  ( -7.937500000000000000, 9.720633968232116200E-016, -21.33600000000000200 ) ) ;
#108 =( NAMED_UNIT ( * ) PLANE_ANGLE_UNIT ( ) SI_UNIT ( $, .RADIAN. ) );
#109 = LINE ( 'NONE', #198, #199 ) ;
#110 = ORIENTED_EDGE ( 'NONE', *, *, #95, .T. ) ;
#111 = APPROVAL_PERSON_ORGANIZATION ( #158, #213, #207 ) ;
#112 = DATE_AND_TIME ( #13, #33 ) ;
#113 = CC_DESIGN_PERSON_AND_ORGANIZATION_ASSIGNMENT ( #136, #246, ( #175 ) ) ;
#114 = FACE_OUTER_BOUND ( 'NONE', #27, .T. ) ;
#115 = VERTEX_POINT ( 'NONE', #142 ) ;
#116 = PRODUCT_RELATED_PRODUCT_CATEGORY ( 'detail', '', ( #191 ) ) ;
#117 = FACE_OUTER_BOUND ( 'NONE', #10, .T. ) ;
#118 = ORIENTED_EDGE ( 'NONE', *, *, #153, .F. ) ;
#119 = CARTESIAN_POINT ( 'NONE',  ( -3.174999999999999800, 3.888253587292846100E-016, -12.69999999999999900 ) ) ;
#120 = PLANE ( 'NONE',  #233 ) ;
#121 = AXIS2_PLACEMENT_3D ( 'NONE', #216, #99, #178 ) ;
#122 = DIRECTION ( 'NONE',  ( -0.0000000000000000000, -0.0000000000000000000, 1.000000000000000000 ) ) ;
#123 = DIRECTION ( 'NONE',  ( 1.000000000000000000, 0.0000000000000000000, 0.0000000000000000000 ) ) ;
#124 = EDGE_LOOP ( 'NONE', ( #154, #85, #118, #31 ) ) ;
#125 = DIRECTION ( 'NONE',  ( -0.0000000000000000000, -0.0000000000000000000, 1.000000000000000000 ) ) ;
#126 = ADVANCED_FACE ( 'NONE', ( #247 ), #161, .F. ) ;
#127 = AXIS2_PLACEMENT_3D ( 'NONE', #43, #4, #123 ) ;
#128 = PERSON ( 'UNSPECIFIED', 'UNSPECIFIED', 'UNSPECIFIED', ('UNSPECIFIED'), ('UNSPECIFIED'), ('UNSPECIFIED') ) ;
#129 = APPROVAL_STATUS ( 'not_yet_approved' ) ;
#130 = EDGE_LOOP ( 'NONE', ( #185, #223, #15, #196 ) ) ;
#131 = DATE_TIME_ROLE ( 'classification_date' ) ;
#132 = ORIENTED_EDGE ( 'NONE', *, *, #192, .F. ) ;
#133 = DATE_AND_TIME ( #45, #181 ) ;
#134 = VERTEX_POINT ( 'NONE', #24 ) ;
#135 = VECTOR ( 'NONE', #1, 1000.000000000000000 ) ;
#136 = PERSON_AND_ORGANIZATION ( #128, #230 ) ;
#137 = AXIS2_PLACEMENT_3D ( 'NONE', #224, #125, #143 ) ;
#138 = CARTESIAN_POINT ( 'NONE',  ( 0.0000000000000000000, 7.937500000000000000, -21.33600000000000200 ) ) ;
#139 = APPROVAL_DATE_TIME ( #188, #186 ) ;
#140 = LINE ( 'NONE', #83, #135 ) ;
#141 = CC_DESIGN_APPROVAL ( #213, ( #39 ) ) ;
#142 = CARTESIAN_POINT ( 'NONE',  ( -7.937500000000000000, 9.720633968232116200E-016, -12.69999999999999900 ) ) ;
#143 = DIRECTION ( 'NONE',  ( 1.000000000000000000, 0.0000000000000000000, 0.0000000000000000000 ) ) ;
#144 = FACE_OUTER_BOUND ( 'NONE', #130, .T. ) ;
#145 = CARTESIAN_POINT ( 'NONE',  ( 0.0000000000000000000, 0.0000000000000000000, 0.0000000000000000000 ) ) ;
#146 = ADVANCED_FACE ( 'NONE', ( #214, #25 ), #104, .F. ) ;
#147 = APPLICATION_CONTEXT ( 'configuration controlled 3d designs of mechanical parts and assemblies' ) ;
#148 = APPROVAL_PERSON_ORGANIZATION ( #245, #186, #30 ) ;
#149 = ORIENTED_EDGE ( 'NONE', *, *, #80, .T. ) ;
#150 = CALENDAR_DATE ( 2021, 14, 7 ) ;
#151 = EDGE_LOOP ( 'NONE', ( #77, #132 ) ) ;
#152 = CARTESIAN_POINT ( 'NONE',  ( -7.937500000000000000, 9.720633968232116200E-016, 0.0000000000000000000 ) ) ;
#153 = EDGE_CURVE ( 'NONE', #167, #115, #75, .T. ) ;
#154 = ORIENTED_EDGE ( 'NONE', *, *, #204, .T. ) ;
#155 = AXIS2_PLACEMENT_3D ( 'NONE', #253, #56, #37 ) ;
#156 = CARTESIAN_POINT ( 'NONE',  ( 0.0000000000000000000, 0.0000000000000000000, 0.0000000000000000000 ) ) ;
#157 = DIRECTION ( 'NONE',  ( -0.0000000000000000000, -0.0000000000000000000, 1.000000000000000000 ) ) ;
#158 = PERSON_AND_ORGANIZATION ( #128, #230 ) ;
#159 = DIRECTION ( 'NONE',  ( 1.000000000000000000, 0.0000000000000000000, 0.0000000000000000000 ) ) ;
#160 = ORIENTED_EDGE ( 'NONE', *, *, #215, .F. ) ;
#161 = PLANE ( 'NONE',  #184 ) ;
#162 = ADVANCED_FACE ( 'NONE', ( #114 ), #206, .T. ) ;
#163 = DIRECTION ( 'NONE',  ( -0.0000000000000000000, -0.0000000000000000000, 1.000000000000000000 ) ) ;
#164 = CIRCLE ( 'NONE', #76, 3.174999999999999800 ) ;
#165 = AXIS2_PLACEMENT_3D ( 'NONE', #20, #163, #239 ) ;
#166 = DIRECTION ( 'NONE',  ( 1.000000000000000000, 0.0000000000000000000, 0.0000000000000000000 ) ) ;
#167 = VERTEX_POINT ( 'NONE', #22 ) ;
#168 = CC_DESIGN_PERSON_AND_ORGANIZATION_ASSIGNMENT ( #2, #243, ( #39 ) ) ;
#169 = CLOSED_SHELL ( 'NONE', ( #238, #241, #126, #162, #146, #182, #48 ) ) ;
#170 = EDGE_CURVE ( 'NONE', #57, #232, #109, .T. ) ;
#171 = VERTEX_POINT ( 'NONE', #107 ) ;
#172 = AXIS2_PLACEMENT_3D ( 'NONE', #86, #46, #65 ) ;
#173 = EDGE_LOOP ( 'NONE', ( #234, #212 ) ) ;
#174 = CARTESIAN_POINT ( 'NONE',  ( 0.0000000000000000000, 0.0000000000000000000, -12.69999999999999900 ) ) ;
#175 = SECURITY_CLASSIFICATION ( '', '', #242 ) ;
#176 = DIRECTION ( 'NONE',  ( 0.0000000000000000000, -0.0000000000000000000, 1.000000000000000000 ) ) ;
#177 = VERTEX_POINT ( 'NONE', #180 ) ;
#178 = DIRECTION ( 'NONE',  ( 1.000000000000000000, 0.0000000000000000000, 0.0000000000000000000 ) ) ;
#179 = DIRECTION ( 'NONE',  ( -0.0000000000000000000, -0.0000000000000000000, 1.000000000000000000 ) ) ;
#180 = CARTESIAN_POINT ( 'NONE',  ( 7.937500000000000000, 0.0000000000000000000, -21.33600000000000200 ) ) ;
#181 = LOCAL_TIME ( 13, 6, 5.000000000000000000, #88 ) ;
#182 = ADVANCED_FACE ( 'NONE', ( #117 ), #100, .T. ) ;
#183 = APPROVAL_STATUS ( 'not_yet_approved' ) ;
#184 = AXIS2_PLACEMENT_3D ( 'NONE', #41, #201, #90 ) ;
#185 = ORIENTED_EDGE ( 'NONE', *, *, #23, .T. ) ;
#186 = APPROVAL ( #129, 'UNSPECIFIED' ) ;
#187 = AXIS2_PLACEMENT_3D ( 'NONE', #197, #84, #221 ) ;
#188 = DATE_AND_TIME ( #96, #249 ) ;
#189 = ORIENTED_EDGE ( 'NONE', *, *, #192, .T. ) ;
#190 = CIRCLE ( 'NONE', #187, 3.174999999999999800 ) ;
#191 = PRODUCT ( 'STP-5299-035-A16-A32-00(WF-0.5)', 'STP-5299-035-A16-A32-00(WF-0.5)', '', ( #231 ) ) ;
#192 = EDGE_CURVE ( 'NONE', #70, #57, #164, .T. ) ;
#193 = PERSON_AND_ORGANIZATION ( #128, #230 ) ;
#194 = DIRECTION ( 'NONE',  ( 1.000000000000000000, 0.0000000000000000000, 0.0000000000000000000 ) ) ;
#195 = AXIS2_PLACEMENT_3D ( 'NONE', #67, #179, #159 ) ;
#196 = ORIENTED_EDGE ( 'NONE', *, *, #170, .F. ) ;
#197 = CARTESIAN_POINT ( 'NONE',  ( 0.0000000000000000000, 0.0000000000000000000, 0.0000000000000000000 ) ) ;
#198 = CARTESIAN_POINT ( 'NONE',  ( 3.174999999999999800, 0.0000000000000000000, 0.0000000000000000000 ) ) ;
#199 = VECTOR ( 'NONE', #157, 1000.000000000000000 ) ;
#200 = COORDINATED_UNIVERSAL_TIME_OFFSET ( 8, 0, .AHEAD. ) ;
#201 = DIRECTION ( 'NONE',  ( 0.0000000000000000000, 0.0000000000000000000, -1.000000000000000000 ) ) ;
#202 = CC_DESIGN_DATE_AND_TIME_ASSIGNMENT ( #251, #209, ( #39 ) ) ;
#203 = DIRECTION ( 'NONE',  ( -0.0000000000000000000, -0.0000000000000000000, 1.000000000000000000 ) ) ;
#204 = EDGE_CURVE ( 'NONE', #177, #171, #68, .T. ) ;
#205 = CC_DESIGN_PERSON_AND_ORGANIZATION_ASSIGNMENT ( #63, #69, ( #191 ) ) ;
#206 = CYLINDRICAL_SURFACE ( 'NONE', #229, 3.174999999999999800 ) ;
#207 = APPROVAL_ROLE ( '' ) ;
#208 = ORIENTED_EDGE ( 'NONE', *, *, #12, .F. ) ;
#209 = DATE_TIME_ROLE ( 'creation_date' ) ;
#210 = LOCAL_TIME ( 13, 6, 5.000000000000000000, #79 ) ;
#211 = CALENDAR_DATE ( 2021, 14, 7 ) ;
#212 = ORIENTED_EDGE ( 'NONE', *, *, #62, .F. ) ;
#213 = APPROVAL ( #183, 'UNSPECIFIED' ) ;
#214 = FACE_BOUND ( 'NONE', #151, .T. ) ;
#215 = EDGE_CURVE ( 'NONE', #70, #134, #50, .T. ) ;
#216 = CARTESIAN_POINT ( 'NONE',  ( 0.0000000000000000000, 0.0000000000000000000, -21.33600000000000200 ) ) ;
#217 = DIRECTION ( 'NONE',  ( -0.0000000000000000000, -0.0000000000000000000, 1.000000000000000000 ) ) ;
#218 = AXIS2_PLACEMENT_3D ( 'NONE', #145, #122, #60 ) ;
#219 = LINE ( 'NONE', #152, #250 ) ;
#220 = ADVANCED_BREP_SHAPE_REPRESENTATION ( 'STP-5299-035-A16-A32-00(WF-0.5)', ( #101, #98 ), #34 ) ;
#221 = DIRECTION ( 'NONE',  ( 1.000000000000000000, 0.0000000000000000000, 0.0000000000000000000 ) ) ;
#222 = DIRECTION ( 'NONE',  ( 1.000000000000000000, 0.0000000000000000000, 0.0000000000000000000 ) ) ;
#223 = ORIENTED_EDGE ( 'NONE', *, *, #215, .T. ) ;
#224 = CARTESIAN_POINT ( 'NONE',  ( 0.0000000000000000000, 0.0000000000000000000, 0.0000000000000000000 ) ) ;
#225 = DIRECTION ( 'NONE',  ( -0.0000000000000000000, -0.0000000000000000000, 1.000000000000000000 ) ) ;
#226 = CARTESIAN_POINT ( 'NONE',  ( 0.0000000000000000000, 0.0000000000000000000, -12.69999999999999900 ) ) ;
#227 = CYLINDRICAL_SURFACE ( 'NONE', #218, 3.174999999999999800 ) ;
#228 = CIRCLE ( 'NONE', #121, 7.937500000000000000 ) ;
#229 = AXIS2_PLACEMENT_3D ( 'NONE', #156, #106, #102 ) ;
#230 = ORGANIZATION ( 'UNSPECIFIED', 'UNSPECIFIED', '' ) ;
#231 = MECHANICAL_CONTEXT ( 'NONE', #147, 'mechanical' ) ;
#232 = VERTEX_POINT ( 'NONE', #105 ) ;
#233 = AXIS2_PLACEMENT_3D ( 'NONE', #138, #176, #36 ) ;
#234 = ORIENTED_EDGE ( 'NONE', *, *, #204, .F. ) ;
#235 = CARTESIAN_POINT ( 'NONE',  ( 3.174999999999999800, 0.0000000000000000000, -12.69999999999999900 ) ) ;
#236 = APPROVAL_DATE_TIME ( #47, #78 ) ;
#237 = DIRECTION ( 'NONE',  ( -0.0000000000000000000, -0.0000000000000000000, 1.000000000000000000 ) ) ;
#238 = ADVANCED_FACE ( 'NONE', ( #16 ), #17, .T. ) ;
#239 = DIRECTION ( 'NONE',  ( 1.000000000000000000, 0.0000000000000000000, 0.0000000000000000000 ) ) ;
#240 = EDGE_CURVE ( 'NONE', #134, #232, #190, .T. ) ;
#241 = ADVANCED_FACE ( 'NONE', ( #144 ), #227, .T. ) ;
#242 = SECURITY_CLASSIFICATION_LEVEL ( 'unclassified' ) ;
#243 = PERSON_AND_ORGANIZATION_ROLE ( 'creator' ) ;
#244 = AXIS2_PLACEMENT_3D ( 'NONE', #255, #203, #222 ) ;
#245 = PERSON_AND_ORGANIZATION ( #128, #230 ) ;
#246 = PERSON_AND_ORGANIZATION_ROLE ( 'classification_officer' ) ;
#247 = FACE_OUTER_BOUND ( 'NONE', #51, .T. ) ;
#248 = PRODUCT_DEFINITION_SHAPE ( 'NONE', 'NONE',  #39 ) ;
#249 = LOCAL_TIME ( 13, 6, 5.000000000000000000, #40 ) ;
#250 = VECTOR ( 'NONE', #217, 1000.000000000000000 ) ;
#251 = DATE_AND_TIME ( #150, #210 ) ;
#252 = UNCERTAINTY_MEASURE_WITH_UNIT (LENGTH_MEASURE( 1.000000000000000100E-005 ), #28, 'distance_accuracy_value', 'NONE');
#253 = CARTESIAN_POINT ( 'NONE',  ( 0.0000000000000000000, 0.0000000000000000000, -12.69999999999999900 ) ) ;
#254 = DIRECTION ( 'NONE',  ( 1.000000000000000000, 0.0000000000000000000, 0.0000000000000000000 ) ) ;
#255 = CARTESIAN_POINT ( 'NONE',  ( 0.0000000000000000000, 0.0000000000000000000, 0.0000000000000000000 ) ) ;
ENDSEC;
END-ISO-10303-21;
