ISO-10303-21;
HEADER;
FILE_DESCRIPTION (( 'STEP AP203' ),
    '1' );
FILE_NAME ('STP-86094.STEP',
    '2017-05-19T03:41:08',
    ( '' ),
    ( '' ),
    'SwSTEP 2.0',
    'SolidWorks 2015',
    '' );
FILE_SCHEMA (( 'CONFIG_CONTROL_DESIGN' ));
ENDSEC;

DATA;
#1 = AXIS2_PLACEMENT_3D ( 'NONE', #282, #402, #400 ) ;
#2 = AXIS2_PLACEMENT_3D ( 'NONE', #261, #263, #358 ) ;
#3 = FACE_OUTER_BOUND ( 'NONE', #121, .T. ) ;
#4 = CALENDAR_DATE ( 2017, 19, 5 ) ;
#5 = DIRECTION ( 'NONE',  ( -0.7071067811865463500, 0.0000000000000000000, 0.7071067811865487900 ) ) ;
#6 = DIRECTION ( 'NONE',  ( 0.0000000000000000000, 0.0000000000000000000, 1.000000000000000000 ) ) ;
#7 = ADVANCED_FACE ( 'NONE', ( #3 ), #144, .F. ) ;
#8 = VERTEX_POINT ( 'NONE', #48 ) ;
#9 = APPLICATION_PROTOCOL_DEFINITION ( 'international standard', 'config_control_design', 1994, #294 ) ;
#10 = EDGE_LOOP ( 'NONE', ( #245, #355, #372, #185 ) ) ;
#11 = CIRCLE ( 'NONE', #365, 7.937500000000000000 ) ;
#12 = APPROVAL ( #324, 'UNSPECIFIED' ) ;
#13 = AXIS2_PLACEMENT_3D ( 'NONE', #284, #218, #307 ) ;
#14 = DATE_AND_TIME ( #100, #184 ) ;
#15 = ORIENTED_EDGE ( 'NONE', *, *, #388, .T. ) ;
#16 = EDGE_LOOP ( 'NONE', ( #175, #69, #286, #118 ) ) ;
#17 = DIRECTION ( 'NONE',  ( -1.000000000000000000, -0.0000000000000000000, -0.0000000000000000000 ) ) ;
#18 =( GEOMETRIC_REPRESENTATION_CONTEXT ( 3 ) GLOBAL_UNCERTAINTY_ASSIGNED_CONTEXT ( ( #191 ) ) GLOBAL_UNIT_ASSIGNED_CONTEXT ( ( #264, #382, #106 ) ) REPRESENTATION_CONTEXT ( 'NONE', 'WORKASPACE' ) );
#19 = AXIS2_PLACEMENT_3D ( 'NONE', #166, #87, #272 ) ;
#20 = DIRECTION ( 'NONE',  ( 0.0000000000000000000, 0.0000000000000000000, 1.000000000000000000 ) ) ;
#21 = EDGE_CURVE ( 'NONE', #371, #207, #162, .T. ) ;
#22 = CIRCLE ( 'NONE', #66, 11.00000000000000000 ) ;
#23 = APPROVAL_DATE_TIME ( #116, #173 ) ;
#24 = CYLINDRICAL_SURFACE ( 'NONE', #378, 8.999999999999998200 ) ;
#25 = CARTESIAN_POINT ( 'NONE',  ( 0.0000000000000000000, 9.720633968232116200E-016, -7.937500000000000000 ) ) ;
#26 = ORIENTED_EDGE ( 'NONE', *, *, #129, .F. ) ;
#27 = ORIENTED_EDGE ( 'NONE', *, *, #240, .T. ) ;
#28 = EDGE_CURVE ( 'NONE', #312, #342, #11, .T. ) ;
#29 = VECTOR ( 'NONE', #320, 1000.000000000000100 ) ;
#30 = APPROVAL_PERSON_ORGANIZATION ( #126, #173, #36 ) ;
#31 = PERSON_AND_ORGANIZATION_ROLE ( 'creator' ) ;
#32 = CC_DESIGN_APPROVAL ( #12, ( #360 ) ) ;
#33 = AXIS2_PLACEMENT_3D ( 'NONE', #183, #56, #128 ) ;
#34 = EDGE_CURVE ( 'NONE', #371, #101, #290, .T. ) ;
#35 = ORIENTED_EDGE ( 'NONE', *, *, #301, .F. ) ;
#36 = APPROVAL_ROLE ( '' ) ;
#37 = ORIENTED_EDGE ( 'NONE', *, *, #188, .F. ) ;
#38 = CARTESIAN_POINT ( 'NONE',  ( 0.0000000000000000000, 0.0000000000000000000, 12.69999999999999900 ) ) ;
#39 = DATE_TIME_ROLE ( 'classification_date' ) ;
#40 = ADVANCED_FACE ( 'NONE', ( #364 ), #347, .T. ) ;
#41 = AXIS2_PLACEMENT_3D ( 'NONE', #350, #273, #105 ) ;
#42 = CARTESIAN_POINT ( 'NONE',  ( 160.0000000000000000, 0.0000000000000000000, 11.00000000000000000 ) ) ;
#43 = EDGE_CURVE ( 'NONE', #101, #371, #209, .T. ) ;
#44 = EDGE_LOOP ( 'NONE', ( #336, #27, #369, #380 ) ) ;
#45 = VERTEX_POINT ( 'NONE', #383 ) ;
#46 = CARTESIAN_POINT ( 'NONE',  ( 160.0000000000000000, 0.0000000000000000000, 0.0000000000000000000 ) ) ;
#47 = ORIENTED_EDGE ( 'NONE', *, *, #325, .T. ) ;
#48 = CARTESIAN_POINT ( 'NONE',  ( 118.9375000000000000, 1.102182119232617500E-015, -8.999999999999998200 ) ) ;
#49 = CARTESIAN_POINT ( 'NONE',  ( 110.0000000000000000, 1.102182119232617500E-015, -8.999999999999998200 ) ) ;
#50 = DIRECTION ( 'NONE',  ( 0.0000000000000000000, 0.0000000000000000000, 1.000000000000000000 ) ) ;
#51 = FACE_OUTER_BOUND ( 'NONE', #225, .T. ) ;
#52 = FACE_OUTER_BOUND ( 'NONE', #305, .T. ) ;
#53 = CARTESIAN_POINT ( 'NONE',  ( 110.0000000000000000, 0.0000000000000000000, 0.0000000000000000000 ) ) ;
#54 = CC_DESIGN_SECURITY_CLASSIFICATION ( #360, ( #254 ) ) ;
#55 = AXIS2_PLACEMENT_3D ( 'NONE', #373, #309, #94 ) ;
#56 = DIRECTION ( 'NONE',  ( -1.000000000000000000, 0.0000000000000000000, -0.0000000000000000000 ) ) ;
#57 = ORIENTED_EDGE ( 'NONE', *, *, #208, .T. ) ;
#58 = EDGE_CURVE ( 'NONE', #174, #299, #70, .T. ) ;
#59 = ORIENTED_EDGE ( 'NONE', *, *, #268, .F. ) ;
#60 = DIRECTION ( 'NONE',  ( -1.000000000000000000, -0.0000000000000000000, -0.0000000000000000000 ) ) ;
#61 = DIRECTION ( 'NONE',  ( 0.0000000000000000000, 0.0000000000000000000, 1.000000000000000000 ) ) ;
#62 = DIRECTION ( 'NONE',  ( 0.0000000000000000000, 0.0000000000000000000, 1.000000000000000000 ) ) ;
#63 = CONICAL_SURFACE ( 'NONE', #81, 7.937500000000000000, 0.7853981633974499400 ) ;
#64 = LINE ( 'NONE', #334, #147 ) ;
#65 = CONICAL_SURFACE ( 'NONE', #362, 11.00000000000000000, 0.07853981633974503600 ) ;
#66 = AXIS2_PLACEMENT_3D ( 'NONE', #46, #75, #150 ) ;
#67 = VERTEX_POINT ( 'NONE', #42 ) ;
#68 = PERSON_AND_ORGANIZATION_ROLE ( 'design_supplier' ) ;
#69 = ORIENTED_EDGE ( 'NONE', *, *, #96, .T. ) ;
#70 = LINE ( 'NONE', #111, #288 ) ;
#71 = DIRECTION ( 'NONE',  ( -1.000000000000000000, -0.0000000000000000000, -0.0000000000000000000 ) ) ;
#72 = DATE_AND_TIME ( #155, #243 ) ;
#73 = ORIENTED_EDGE ( 'NONE', *, *, #301, .T. ) ;
#74 = DIRECTION ( 'NONE',  ( 0.0000000000000000000, 0.0000000000000000000, 1.000000000000000000 ) ) ;
#75 = DIRECTION ( 'NONE',  ( -1.000000000000000000, -0.0000000000000000000, -0.0000000000000000000 ) ) ;
#76 = CIRCLE ( 'NONE', #314, 8.999999999999998200 ) ;
#77 = DATE_TIME_ROLE ( 'creation_date' ) ;
#78 = LINE ( 'NONE', #114, #141 ) ;
#79 = ORIENTED_EDGE ( 'NONE', *, *, #180, .T. ) ;
#80 = PRODUCT_RELATED_PRODUCT_CATEGORY ( 'detail', '', ( #326 ) ) ;
#81 = AXIS2_PLACEMENT_3D ( 'NONE', #157, #220, #154 ) ;
#82 = CARTESIAN_POINT ( 'NONE',  ( 120.0000000000000000, 0.0000000000000000000, 0.0000000000000000000 ) ) ;
#83 = PERSON_AND_ORGANIZATION ( #297, #289 ) ;
#84 = ORIENTED_EDGE ( 'NONE', *, *, #28, .T. ) ;
#85 = DIRECTION ( 'NONE',  ( 0.0000000000000000000, 0.0000000000000000000, 1.000000000000000000 ) ) ;
#86 = FACE_OUTER_BOUND ( 'NONE', #10, .T. ) ;
#87 = DIRECTION ( 'NONE',  ( -1.000000000000000000, -0.0000000000000000000, -0.0000000000000000000 ) ) ;
#88 = DIRECTION ( 'NONE',  ( 0.0000000000000000000, 0.0000000000000000000, 1.000000000000000000 ) ) ;
#89 = EDGE_CURVE ( 'NONE', #299, #45, #366, .T. ) ;
#90 = ORIENTED_EDGE ( 'NONE', *, *, #165, .F. ) ;
#91 = ORIENTED_EDGE ( 'NONE', *, *, #34, .T. ) ;
#92 = CIRCLE ( 'NONE', #113, 12.69999999999999900 ) ;
#93 = LOCAL_TIME ( 11, 41, 8.000000000000000000, #176 ) ;
#94 = DIRECTION ( 'NONE',  ( 0.0000000000000000000, 0.0000000000000000000, 1.000000000000000000 ) ) ;
#95 = DIRECTION ( 'NONE',  ( -1.000000000000000000, -0.0000000000000000000, -0.0000000000000000000 ) ) ;
#96 = EDGE_CURVE ( 'NONE', #260, #67, #22, .T. ) ;
#97 = EDGE_LOOP ( 'NONE', ( #190, #73, #47, #90 ) ) ;
#98 = ADVANCED_FACE ( 'NONE', ( #115 ), #108, .T. ) ;
#99 = LINE ( 'NONE', #130, #374 ) ;
#100 = CALENDAR_DATE ( 2017, 19, 5 ) ;
#101 = VERTEX_POINT ( 'NONE', #330 ) ;
#102 = AXIS2_PLACEMENT_3D ( 'NONE', #321, #229, #351 ) ;
#103 = EDGE_CURVE ( 'NONE', #174, #177, #92, .T. ) ;
#104 = APPROVAL_DATE_TIME ( #187, #12 ) ;
#105 = DIRECTION ( 'NONE',  ( 0.0000000000000000000, 0.0000000000000000000, 1.000000000000000000 ) ) ;
#106 =( NAMED_UNIT ( * ) SI_UNIT ( $, .STERADIAN. ) SOLID_ANGLE_UNIT ( ) );
#107 = APPROVAL_STATUS ( 'not_yet_approved' ) ;
#108 = PLANE ( 'NONE',  #135 ) ;
#109 = ORIENTED_EDGE ( 'NONE', *, *, #165, .T. ) ;
#110 = ADVANCED_FACE ( 'NONE', ( #278 ), #339, .T. ) ;
#111 = CARTESIAN_POINT ( 'NONE',  ( 0.0000000000000000000, 1.555301434917138400E-015, -12.69999999999999900 ) ) ;
#112 = AXIS2_PLACEMENT_3D ( 'NONE', #202, #74, #291 ) ;
#113 = AXIS2_PLACEMENT_3D ( 'NONE', #379, #234, #181 ) ;
#114 = CARTESIAN_POINT ( 'NONE',  ( 0.0000000000000000000, 0.0000000000000000000, 7.937500000000000000 ) ) ;
#115 = FACE_OUTER_BOUND ( 'NONE', #213, .T. ) ;
#116 = DATE_AND_TIME ( #196, #281 ) ;
#117 = CARTESIAN_POINT ( 'NONE',  ( 160.0000000000000000, 0.0000000000000000000, 11.00000000000000000 ) ) ;
#118 = ORIENTED_EDGE ( 'NONE', *, *, #103, .F. ) ;
#119 = VECTOR ( 'NONE', #123, 1000.000000000000000 ) ;
#120 = PRODUCT_DEFINITION_SHAPE ( 'NONE', 'NONE',  #151 ) ;
#121 = EDGE_LOOP ( 'NONE', ( #35, #164, #109, #57 ) ) ;
#122 = EDGE_CURVE ( 'NONE', #177, #45, #386, .T. ) ;
#123 = DIRECTION ( 'NONE',  ( -1.000000000000000000, -0.0000000000000000000, -0.0000000000000000000 ) ) ;
#124 = CARTESIAN_POINT ( 'NONE',  ( 0.0000000000000000000, 0.0000000000000000000, 8.999999999999998200 ) ) ;
#125 = DIRECTION ( 'NONE',  ( -1.000000000000000000, -0.0000000000000000000, -0.0000000000000000000 ) ) ;
#126 = PERSON_AND_ORGANIZATION ( #297, #289 ) ;
#127 = AXIS2_PLACEMENT_3D ( 'NONE', #138, #262, #167 ) ;
#128 = DIRECTION ( 'NONE',  ( -0.0000000000000000000, 0.0000000000000000000, 1.000000000000000000 ) ) ;
#129 = EDGE_CURVE ( 'NONE', #67, #177, #302, .T. ) ;
#130 = CARTESIAN_POINT ( 'NONE',  ( 0.0000000000000000000, 1.102182119232617500E-015, -8.999999999999998200 ) ) ;
#131 = VERTEX_POINT ( 'NONE', #49 ) ;
#132 = EDGE_LOOP ( 'NONE', ( #79, #390, #136, #26 ) ) ;
#133 = CC_DESIGN_PERSON_AND_ORGANIZATION_ASSIGNMENT ( #206, #323, ( #326 ) ) ;
#134 = MANIFOLD_SOLID_BREP ( '°£®Æ-±ÛÂà1', #319 ) ;
#135 = AXIS2_PLACEMENT_3D ( 'NONE', #145, #275, #354 ) ;
#136 = ORIENTED_EDGE ( 'NONE', *, *, #315, .F. ) ;
#137 = ORIENTED_EDGE ( 'NONE', *, *, #340, .T. ) ;
#138 = CARTESIAN_POINT ( 'NONE',  ( 160.0000000000000000, 0.0000000000000000000, 0.0000000000000000000 ) ) ;
#139 = CARTESIAN_POINT ( 'NONE',  ( 160.0000000000000000, 0.0000000000000000000, 0.0000000000000000000 ) ) ;
#140 = ADVANCED_FACE ( 'NONE', ( #194 ), #226, .F. ) ;
#141 = VECTOR ( 'NONE', #168, 1000.000000000000000 ) ;
#142 = DIRECTION ( 'NONE',  ( -1.000000000000000000, -0.0000000000000000000, -0.0000000000000000000 ) ) ;
#143 = ORIENTED_EDGE ( 'NONE', *, *, #388, .F. ) ;
#144 = CYLINDRICAL_SURFACE ( 'NONE', #387, 8.999999999999998200 ) ;
#145 = CARTESIAN_POINT ( 'NONE',  ( 110.0000000000000000, 8.999999999999998200, 0.0000000000000000000 ) ) ;
#146 = DIRECTION ( 'NONE',  ( -1.000000000000000000, -0.0000000000000000000, -0.0000000000000000000 ) ) ;
#147 = VECTOR ( 'NONE', #189, 999.9999999999998900 ) ;
#148 = DIRECTION ( 'NONE',  ( -0.9969173337331278500, 9.608468044710132000E-018, -0.07845909572784513800 ) ) ;
#149 = LINE ( 'NONE', #124, #170 ) ;
#150 = DIRECTION ( 'NONE',  ( 0.0000000000000000000, 0.0000000000000000000, 1.000000000000000000 ) ) ;
#151 = PRODUCT_DEFINITION ( 'UNKNOWN', '', #254, #363 ) ;
#152 = AXIS2_PLACEMENT_3D ( 'NONE', #139, #239, #6 ) ;
#153 = ORIENTED_EDGE ( 'NONE', *, *, #96, .F. ) ;
#154 = DIRECTION ( 'NONE',  ( 0.0000000000000000000, 0.0000000000000000000, 1.000000000000000000 ) ) ;
#155 = CALENDAR_DATE ( 2017, 19, 5 ) ;
#156 = VERTEX_POINT ( 'NONE', #172 ) ;
#157 = CARTESIAN_POINT ( 'NONE',  ( 120.0000000000000000, 0.0000000000000000000, 0.0000000000000000000 ) ) ;
#158 = CONICAL_SURFACE ( 'NONE', #193, 7.937500000000000000, 0.7853981633974499400 ) ;
#159 = CARTESIAN_POINT ( 'NONE',  ( 120.0000000000000000, 0.0000000000000000000, 7.937500000000000000 ) ) ;
#160 = FACE_OUTER_BOUND ( 'NONE', #44, .T. ) ;
#161 = CIRCLE ( 'NONE', #127, 7.937500000000000000 ) ;
#162 = LINE ( 'NONE', #322, #242 ) ;
#163 = PERSON_AND_ORGANIZATION ( #297, #289 ) ;
#164 = ORIENTED_EDGE ( 'NONE', *, *, #340, .F. ) ;
#165 = EDGE_CURVE ( 'NONE', #207, #156, #149, .T. ) ;
#166 = CARTESIAN_POINT ( 'NONE',  ( 120.0000000000000000, 0.0000000000000000000, 0.0000000000000000000 ) ) ;
#167 = DIRECTION ( 'NONE',  ( 0.0000000000000000000, 0.0000000000000000000, 1.000000000000000000 ) ) ;
#168 = DIRECTION ( 'NONE',  ( -1.000000000000000000, -0.0000000000000000000, -0.0000000000000000000 ) ) ;
#169 = SECURITY_CLASSIFICATION_LEVEL ( 'unclassified' ) ;
#170 = VECTOR ( 'NONE', #394, 1000.000000000000000 ) ;
#171 = ADVANCED_FACE ( 'NONE', ( #179 ), #223, .F. ) ;
#172 = CARTESIAN_POINT ( 'NONE',  ( 110.0000000000000000, 0.0000000000000000000, 8.999999999999998200 ) ) ;
#173 = APPROVAL ( #224, 'UNSPECIFIED' ) ;
#174 = VERTEX_POINT ( 'NONE', #210 ) ;
#175 = ORIENTED_EDGE ( 'NONE', *, *, #205, .F. ) ;
#176 = COORDINATED_UNIVERSAL_TIME_OFFSET ( 8, 0, .AHEAD. ) ;
#177 = VERTEX_POINT ( 'NONE', #292 ) ;
#178 = DIRECTION ( 'NONE',  ( 0.0000000000000000000, 0.0000000000000000000, 1.000000000000000000 ) ) ;
#179 = FACE_OUTER_BOUND ( 'NONE', #317, .T. ) ;
#180 = EDGE_CURVE ( 'NONE', #67, #260, #311, .T. ) ;
#181 = DIRECTION ( 'NONE',  ( 0.0000000000000000000, 0.0000000000000000000, 1.000000000000000000 ) ) ;
#182 = FACE_OUTER_BOUND ( 'NONE', #327, .T. ) ;
#183 = CARTESIAN_POINT ( 'NONE',  ( 160.0000000000000000, 11.00000000000000000, 0.0000000000000000000 ) ) ;
#184 = LOCAL_TIME ( 11, 41, 8.000000000000000000, #269 ) ;
#185 = ORIENTED_EDGE ( 'NONE', *, *, #89, .F. ) ;
#186 = CARTESIAN_POINT ( 'NONE',  ( 160.0000000000000000, 9.720633968232116200E-016, -7.937500000000000000 ) ) ;
#187 = DATE_AND_TIME ( #271, #349 ) ;
#188 = EDGE_CURVE ( 'NONE', #312, #371, #78, .T. ) ;
#189 = DIRECTION ( 'NONE',  ( -0.7071067811865463500, 8.659560562354948900E-017, -0.7071067811865487900 ) ) ;
#190 = ORIENTED_EDGE ( 'NONE', *, *, #246, .F. ) ;
#191 = UNCERTAINTY_MEASURE_WITH_UNIT (LENGTH_MEASURE( 1.000000000000000100E-005 ), #264, 'distance_accuracy_value', 'NONE');
#192 = CC_DESIGN_APPROVAL ( #173, ( #151 ) ) ;
#193 = AXIS2_PLACEMENT_3D ( 'NONE', #248, #95, #62 ) ;
#194 = FACE_OUTER_BOUND ( 'NONE', #257, .T. ) ;
#195 = PERSON_AND_ORGANIZATION_ROLE ( 'classification_officer' ) ;
#196 = CALENDAR_DATE ( 2017, 19, 5 ) ;
#197 = ORIENTED_EDGE ( 'NONE', *, *, #28, .F. ) ;
#198 = ADVANCED_FACE ( 'NONE', ( #86 ), #304, .T. ) ;
#199 = CYLINDRICAL_SURFACE ( 'NONE', #1, 7.937500000000000000 ) ;
#200 = CARTESIAN_POINT ( 'NONE',  ( -1.944126793646422500E-016, 12.69999999999999900, 0.0000000000000000000 ) ) ;
#201 = APPROVAL_ROLE ( '' ) ;
#202 = CARTESIAN_POINT ( 'NONE',  ( 0.0000000000000000000, 0.0000000000000000000, 0.0000000000000000000 ) ) ;
#203 = ORIENTED_EDGE ( 'NONE', *, *, #58, .T. ) ;
#204 = PERSON_AND_ORGANIZATION_ROLE ( 'creator' ) ;
#205 = EDGE_CURVE ( 'NONE', #260, #174, #376, .T. ) ;
#206 = PERSON_AND_ORGANIZATION ( #297, #289 ) ;
#207 = VERTEX_POINT ( 'NONE', #221 ) ;
#208 = EDGE_CURVE ( 'NONE', #156, #131, #310, .T. ) ;
#209 = CIRCLE ( 'NONE', #19, 7.937500000000000000 ) ;
#210 = CARTESIAN_POINT ( 'NONE',  ( 138.3994519485030700, 1.555301434917138400E-015, -12.69999999999999900 ) ) ;
#211 = ORIENTED_EDGE ( 'NONE', *, *, #268, .T. ) ;
#212 = CC_DESIGN_PERSON_AND_ORGANIZATION_ASSIGNMENT ( #348, #31, ( #151 ) ) ;
#213 = EDGE_LOOP ( 'NONE', ( #270, #293 ) ) ;
#214 = AXIS2_PLACEMENT_3D ( 'NONE', #200, #230, #395 ) ;
#215 = CARTESIAN_POINT ( 'NONE',  ( 160.0000000000000000, 0.0000000000000000000, 0.0000000000000000000 ) ) ;
#216 = VECTOR ( 'NONE', #148, 1000.000000000000100 ) ;
#217 = PLANE ( 'NONE',  #33 ) ;
#218 = DIRECTION ( 'NONE',  ( -1.000000000000000000, -0.0000000000000000000, -0.0000000000000000000 ) ) ;
#219 = ORIENTED_EDGE ( 'NONE', *, *, #89, .T. ) ;
#220 = DIRECTION ( 'NONE',  ( -1.000000000000000000, -0.0000000000000000000, -0.0000000000000000000 ) ) ;
#221 = CARTESIAN_POINT ( 'NONE',  ( 118.9375000000000000, 0.0000000000000000000, 8.999999999999998200 ) ) ;
#222 = CIRCLE ( 'NONE', #337, 12.69999999999999900 ) ;
#223 = CYLINDRICAL_SURFACE ( 'NONE', #256, 7.937500000000000000 ) ;
#224 = APPROVAL_STATUS ( 'not_yet_approved' ) ;
#225 = EDGE_LOOP ( 'NONE', ( #59, #197, #389, #91 ) ) ;
#226 = PLANE ( 'NONE',  #214 ) ;
#227 = COORDINATED_UNIVERSAL_TIME_OFFSET ( 8, 0, .AHEAD. ) ;
#228 = DIRECTION ( 'NONE',  ( -1.000000000000000000, -0.0000000000000000000, -0.0000000000000000000 ) ) ;
#229 = DIRECTION ( 'NONE',  ( -1.000000000000000000, -0.0000000000000000000, -0.0000000000000000000 ) ) ;
#230 = DIRECTION ( 'NONE',  ( 1.000000000000000000, 0.0000000000000000000, 0.0000000000000000000 ) ) ;
#231 = APPLICATION_CONTEXT ( 'configuration controlled 3d designs of mechanical parts and assemblies' ) ;
#232 = FACE_OUTER_BOUND ( 'NONE', #97, .T. ) ;
#233 = APPROVAL_ROLE ( '' ) ;
#234 = DIRECTION ( 'NONE',  ( -1.000000000000000000, -0.0000000000000000000, -0.0000000000000000000 ) ) ;
#235 = ADVANCED_FACE ( 'NONE', ( #160 ), #158, .F. ) ;
#236 = CARTESIAN_POINT ( 'NONE',  ( 0.0000000000000000000, 0.0000000000000000000, 0.0000000000000000000 ) ) ;
#237 = CC_DESIGN_DATE_AND_TIME_ASSIGNMENT ( #14, #77, ( #151 ) ) ;
#238 = AXIS2_PLACEMENT_3D ( 'NONE', #332, #274, #88 ) ;
#239 = DIRECTION ( 'NONE',  ( -1.000000000000000000, -0.0000000000000000000, -0.0000000000000000000 ) ) ;
#240 = EDGE_CURVE ( 'NONE', #101, #8, #64, .T. ) ;
#241 = ORIENTED_EDGE ( 'NONE', *, *, #401, .F. ) ;
#242 = VECTOR ( 'NONE', #5, 999.9999999999998900 ) ;
#243 = LOCAL_TIME ( 11, 41, 8.000000000000000000, #318 ) ;
#244 = DIRECTION ( 'NONE',  ( 0.0000000000000000000, 0.0000000000000000000, 1.000000000000000000 ) ) ;
#245 = ORIENTED_EDGE ( 'NONE', *, *, #58, .F. ) ;
#246 = EDGE_CURVE ( 'NONE', #8, #207, #76, .T. ) ;
#247 = CARTESIAN_POINT ( 'NONE',  ( 160.0000000000000000, 1.451206456989613500E-015, -11.00000000000000000 ) ) ;
#248 = CARTESIAN_POINT ( 'NONE',  ( 120.0000000000000000, 0.0000000000000000000, 0.0000000000000000000 ) ) ;
#249 = ORIENTED_EDGE ( 'NONE', *, *, #43, .T. ) ;
#250 = ORIENTED_EDGE ( 'NONE', *, *, #122, .F. ) ;
#251 = APPROVAL_DATE_TIME ( #328, #277 ) ;
#252 = ORIENTED_EDGE ( 'NONE', *, *, #21, .T. ) ;
#253 = ADVANCED_BREP_SHAPE_REPRESENTATION ( 'STP-86094', ( #134, #112 ), #18 ) ;
#254 = PRODUCT_DEFINITION_FORMATION_WITH_SPECIFIED_SOURCE ( 'ANY', '', #326, .NOT_KNOWN. ) ;
#255 = EDGE_LOOP ( 'NONE', ( #266, #203, #241, #250 ) ) ;
#256 = AXIS2_PLACEMENT_3D ( 'NONE', #236, #146, #244 ) ;
#257 = EDGE_LOOP ( 'NONE', ( #329, #219 ) ) ;
#258 = ORIENTED_EDGE ( 'NONE', *, *, #240, .F. ) ;
#259 = APPROVAL_PERSON_ORGANIZATION ( #341, #277, #201 ) ;
#260 = VERTEX_POINT ( 'NONE', #247 ) ;
#261 = CARTESIAN_POINT ( 'NONE',  ( -3.888253587292845100E-016, 0.0000000000000000000, 0.0000000000000000000 ) ) ;
#262 = DIRECTION ( 'NONE',  ( -1.000000000000000000, -0.0000000000000000000, -0.0000000000000000000 ) ) ;
#263 = DIRECTION ( 'NONE',  ( -1.000000000000000000, -0.0000000000000000000, -0.0000000000000000000 ) ) ;
#264 =( LENGTH_UNIT ( ) NAMED_UNIT ( * ) SI_UNIT ( .MILLI., .METRE. ) );
#265 = MECHANICAL_CONTEXT ( 'NONE', #231, 'mechanical' ) ;
#266 = ORIENTED_EDGE ( 'NONE', *, *, #315, .T. ) ;
#267 = ADVANCED_FACE ( 'NONE', ( #232 ), #24, .F. ) ;
#268 = EDGE_CURVE ( 'NONE', #342, #101, #331, .T. ) ;
#269 = COORDINATED_UNIVERSAL_TIME_OFFSET ( 8, 0, .AHEAD. ) ;
#270 = ORIENTED_EDGE ( 'NONE', *, *, #208, .F. ) ;
#271 = CALENDAR_DATE ( 2017, 19, 5 ) ;
#272 = DIRECTION ( 'NONE',  ( 0.0000000000000000000, 0.0000000000000000000, 1.000000000000000000 ) ) ;
#273 = DIRECTION ( 'NONE',  ( -1.000000000000000000, -0.0000000000000000000, -0.0000000000000000000 ) ) ;
#274 = DIRECTION ( 'NONE',  ( -1.000000000000000000, -0.0000000000000000000, -0.0000000000000000000 ) ) ;
#275 = DIRECTION ( 'NONE',  ( 1.000000000000000000, 0.0000000000000000000, 0.0000000000000000000 ) ) ;
#276 = CARTESIAN_POINT ( 'NONE',  ( 160.0000000000000000, 1.347111479062088400E-015, -11.00000000000000000 ) ) ;
#277 = APPROVAL ( #107, 'UNSPECIFIED' ) ;
#278 = FACE_OUTER_BOUND ( 'NONE', #16, .T. ) ;
#279 = AXIS2_PLACEMENT_3D ( 'NONE', #53, #405, #344 ) ;
#280 = CARTESIAN_POINT ( 'NONE',  ( -3.888253587292845100E-016, 1.555301434917138400E-015, -12.69999999999999900 ) ) ;
#281 = LOCAL_TIME ( 11, 41, 8.000000000000000000, #361 ) ;
#282 = CARTESIAN_POINT ( 'NONE',  ( 0.0000000000000000000, 0.0000000000000000000, 0.0000000000000000000 ) ) ;
#283 = FACE_OUTER_BOUND ( 'NONE', #132, .T. ) ;
#284 = CARTESIAN_POINT ( 'NONE',  ( 110.0000000000000000, 0.0000000000000000000, 0.0000000000000000000 ) ) ;
#285 = DIRECTION ( 'NONE',  ( 0.0000000000000000000, 0.0000000000000000000, 1.000000000000000000 ) ) ;
#286 = ORIENTED_EDGE ( 'NONE', *, *, #129, .T. ) ;
#287 = FACE_BOUND ( 'NONE', #392, .T. ) ;
#288 = VECTOR ( 'NONE', #142, 1000.000000000000000 ) ;
#289 = ORGANIZATION ( 'UNSPECIFIED', 'UNSPECIFIED', '' ) ;
#290 = CIRCLE ( 'NONE', #346, 7.937500000000000000 ) ;
#291 = DIRECTION ( 'NONE',  ( 1.000000000000000000, 0.0000000000000000000, 0.0000000000000000000 ) ) ;
#292 = CARTESIAN_POINT ( 'NONE',  ( 138.3994519485030700, 0.0000000000000000000, 12.69999999999999900 ) ) ;
#293 = ORIENTED_EDGE ( 'NONE', *, *, #325, .F. ) ;
#294 = APPLICATION_CONTEXT ( 'configuration controlled 3d designs of mechanical parts and assemblies' ) ;
#295 = ADVANCED_FACE ( 'NONE', ( #283 ), #65, .T. ) ;
#296 = CC_DESIGN_APPROVAL ( #277, ( #254 ) ) ;
#297 = PERSON ( 'UNSPECIFIED', 'UNSPECIFIED', 'UNSPECIFIED', ('UNSPECIFIED'), ('UNSPECIFIED'), ('UNSPECIFIED') ) ;
#298 = AXIS2_PLACEMENT_3D ( 'NONE', #356, #17, #61 ) ;
#299 = VERTEX_POINT ( 'NONE', #280 ) ;
#300 = DIRECTION ( 'NONE',  ( -1.000000000000000000, -0.0000000000000000000, -0.0000000000000000000 ) ) ;
#301 = EDGE_CURVE ( 'NONE', #8, #131, #99, .T. ) ;
#302 = LINE ( 'NONE', #117, #29 ) ;
#303 = CARTESIAN_POINT ( 'NONE',  ( 0.0000000000000000000, 0.0000000000000000000, 0.0000000000000000000 ) ) ;
#304 = CYLINDRICAL_SURFACE ( 'NONE', #298, 12.69999999999999900 ) ;
#305 = EDGE_LOOP ( 'NONE', ( #258, #399, #252, #137 ) ) ;
#306 = DIRECTION ( 'NONE',  ( -1.000000000000000000, -0.0000000000000000000, -0.0000000000000000000 ) ) ;
#307 = DIRECTION ( 'NONE',  ( 0.0000000000000000000, 0.0000000000000000000, 1.000000000000000000 ) ) ;
#308 = APPROVAL_PERSON_ORGANIZATION ( #391, #12, #233 ) ;
#309 = DIRECTION ( 'NONE',  ( -1.000000000000000000, -0.0000000000000000000, -0.0000000000000000000 ) ) ;
#310 = CIRCLE ( 'NONE', #279, 8.999999999999998200 ) ;
#311 = CIRCLE ( 'NONE', #238, 11.00000000000000000 ) ;
#312 = VERTEX_POINT ( 'NONE', #338 ) ;
#313 = CC_DESIGN_PERSON_AND_ORGANIZATION_ASSIGNMENT ( #163, #204, ( #254 ) ) ;
#314 = AXIS2_PLACEMENT_3D ( 'NONE', #397, #125, #50 ) ;
#315 = EDGE_CURVE ( 'NONE', #177, #174, #222, .T. ) ;
#316 = ADVANCED_FACE ( 'NONE', ( #287, #182 ), #217, .F. ) ;
#317 = EDGE_LOOP ( 'NONE', ( #143, #211, #249, #37 ) ) ;
#318 = COORDINATED_UNIVERSAL_TIME_OFFSET ( 8, 0, .AHEAD. ) ;
#319 = CLOSED_SHELL ( 'NONE', ( #171, #267, #235, #295, #40, #140, #198, #110, #316, #357, #7, #98, #385 ) ) ;
#320 = DIRECTION ( 'NONE',  ( -0.9969173337331278500, 0.0000000000000000000, 0.07845909572784513800 ) ) ;
#321 = CARTESIAN_POINT ( 'NONE',  ( -3.888253587292845100E-016, 0.0000000000000000000, 0.0000000000000000000 ) ) ;
#322 = CARTESIAN_POINT ( 'NONE',  ( 120.0000000000000000, 0.0000000000000000000, 7.937500000000000000 ) ) ;
#323 = PERSON_AND_ORGANIZATION_ROLE ( 'design_owner' ) ;
#324 = APPROVAL_STATUS ( 'not_yet_approved' ) ;
#325 = EDGE_CURVE ( 'NONE', #131, #156, #384, .T. ) ;
#326 = PRODUCT ( 'STP-86094', 'STP-86094', '', ( #265 ) ) ;
#327 = EDGE_LOOP ( 'NONE', ( #404, #153 ) ) ;
#328 = DATE_AND_TIME ( #4, #93 ) ;
#329 = ORIENTED_EDGE ( 'NONE', *, *, #401, .T. ) ;
#330 = CARTESIAN_POINT ( 'NONE',  ( 120.0000000000000000, 1.037122758027914700E-015, -7.937500000000000000 ) ) ;
#331 = LINE ( 'NONE', #25, #119 ) ;
#332 = CARTESIAN_POINT ( 'NONE',  ( 160.0000000000000000, 0.0000000000000000000, 0.0000000000000000000 ) ) ;
#333 = DIRECTION ( 'NONE',  ( 0.0000000000000000000, 0.0000000000000000000, 1.000000000000000000 ) ) ;
#334 = CARTESIAN_POINT ( 'NONE',  ( 120.0000000000000000, 9.720633968232116200E-016, -7.937500000000000000 ) ) ;
#335 = CC_DESIGN_PERSON_AND_ORGANIZATION_ASSIGNMENT ( #83, #68, ( #254 ) ) ;
#336 = ORIENTED_EDGE ( 'NONE', *, *, #43, .F. ) ;
#337 = AXIS2_PLACEMENT_3D ( 'NONE', #345, #306, #343 ) ;
#338 = CARTESIAN_POINT ( 'NONE',  ( 160.0000000000000000, 0.0000000000000000000, 7.937500000000000000 ) ) ;
#339 = CONICAL_SURFACE ( 'NONE', #152, 11.00000000000000000, 0.07853981633974503600 ) ;
#340 = EDGE_CURVE ( 'NONE', #207, #8, #375, .T. ) ;
#341 = PERSON_AND_ORGANIZATION ( #297, #289 ) ;
#342 = VERTEX_POINT ( 'NONE', #186 ) ;
#343 = DIRECTION ( 'NONE',  ( 0.0000000000000000000, 0.0000000000000000000, 1.000000000000000000 ) ) ;
#344 = DIRECTION ( 'NONE',  ( 0.0000000000000000000, 0.0000000000000000000, 1.000000000000000000 ) ) ;
#345 = CARTESIAN_POINT ( 'NONE',  ( 138.3994519485030700, 0.0000000000000000000, 0.0000000000000000000 ) ) ;
#346 = AXIS2_PLACEMENT_3D ( 'NONE', #82, #71, #85 ) ;
#347 = CYLINDRICAL_SURFACE ( 'NONE', #41, 12.69999999999999900 ) ;
#348 = PERSON_AND_ORGANIZATION ( #297, #289 ) ;
#349 = LOCAL_TIME ( 11, 41, 8.000000000000000000, #227 ) ;
#350 = CARTESIAN_POINT ( 'NONE',  ( 0.0000000000000000000, 0.0000000000000000000, 0.0000000000000000000 ) ) ;
#351 = DIRECTION ( 'NONE',  ( 0.0000000000000000000, 0.0000000000000000000, 1.000000000000000000 ) ) ;
#352 = DIRECTION ( 'NONE',  ( -1.000000000000000000, -0.0000000000000000000, -0.0000000000000000000 ) ) ;
#353 = APPLICATION_PROTOCOL_DEFINITION ( 'international standard', 'config_control_design', 1994, #231 ) ;
#354 = DIRECTION ( 'NONE',  ( 0.0000000000000000000, 0.0000000000000000000, -1.000000000000000000 ) ) ;
#355 = ORIENTED_EDGE ( 'NONE', *, *, #103, .T. ) ;
#356 = CARTESIAN_POINT ( 'NONE',  ( 0.0000000000000000000, 0.0000000000000000000, 0.0000000000000000000 ) ) ;
#357 = ADVANCED_FACE ( 'NONE', ( #52 ), #63, .F. ) ;
#358 = DIRECTION ( 'NONE',  ( 0.0000000000000000000, 0.0000000000000000000, 1.000000000000000000 ) ) ;
#359 = VECTOR ( 'NONE', #228, 1000.000000000000000 ) ;
#360 = SECURITY_CLASSIFICATION ( '', '', #169 ) ;
#361 = COORDINATED_UNIVERSAL_TIME_OFFSET ( 8, 0, .AHEAD. ) ;
#362 = AXIS2_PLACEMENT_3D ( 'NONE', #215, #60, #285 ) ;
#363 = DESIGN_CONTEXT ( 'detailed design', #294, 'design' ) ;
#364 = FACE_OUTER_BOUND ( 'NONE', #255, .T. ) ;
#365 = AXIS2_PLACEMENT_3D ( 'NONE', #381, #352, #178 ) ;
#366 = CIRCLE ( 'NONE', #2, 12.69999999999999900 ) ;
#367 = DIRECTION ( 'NONE',  ( -1.000000000000000000, -0.0000000000000000000, -0.0000000000000000000 ) ) ;
#368 = SHAPE_DEFINITION_REPRESENTATION ( #120, #253 ) ;
#369 = ORIENTED_EDGE ( 'NONE', *, *, #246, .T. ) ;
#370 = DIRECTION ( 'NONE',  ( -1.000000000000000000, -0.0000000000000000000, -0.0000000000000000000 ) ) ;
#371 = VERTEX_POINT ( 'NONE', #159 ) ;
#372 = ORIENTED_EDGE ( 'NONE', *, *, #122, .T. ) ;
#373 = CARTESIAN_POINT ( 'NONE',  ( 118.9375000000000000, 0.0000000000000000000, 0.0000000000000000000 ) ) ;
#374 = VECTOR ( 'NONE', #370, 1000.000000000000000 ) ;
#375 = CIRCLE ( 'NONE', #55, 8.999999999999998200 ) ;
#376 = LINE ( 'NONE', #276, #216 ) ;
#377 = CC_DESIGN_PERSON_AND_ORGANIZATION_ASSIGNMENT ( #403, #195, ( #360 ) ) ;
#378 = AXIS2_PLACEMENT_3D ( 'NONE', #303, #367, #20 ) ;
#379 = CARTESIAN_POINT ( 'NONE',  ( 138.3994519485030700, 0.0000000000000000000, 0.0000000000000000000 ) ) ;
#380 = ORIENTED_EDGE ( 'NONE', *, *, #21, .F. ) ;
#381 = CARTESIAN_POINT ( 'NONE',  ( 160.0000000000000000, 0.0000000000000000000, 0.0000000000000000000 ) ) ;
#382 =( NAMED_UNIT ( * ) PLANE_ANGLE_UNIT ( ) SI_UNIT ( $, .RADIAN. ) );
#383 = CARTESIAN_POINT ( 'NONE',  ( -3.888253587292845100E-016, 0.0000000000000000000, 12.69999999999999900 ) ) ;
#384 = CIRCLE ( 'NONE', #13, 8.999999999999998200 ) ;
#385 = ADVANCED_FACE ( 'NONE', ( #51 ), #199, .F. ) ;
#386 = LINE ( 'NONE', #38, #359 ) ;
#387 = AXIS2_PLACEMENT_3D ( 'NONE', #393, #300, #333 ) ;
#388 = EDGE_CURVE ( 'NONE', #342, #312, #161, .T. ) ;
#389 = ORIENTED_EDGE ( 'NONE', *, *, #188, .T. ) ;
#390 = ORIENTED_EDGE ( 'NONE', *, *, #205, .T. ) ;
#391 = PERSON_AND_ORGANIZATION ( #297, #289 ) ;
#392 = EDGE_LOOP ( 'NONE', ( #84, #15 ) ) ;
#393 = CARTESIAN_POINT ( 'NONE',  ( 0.0000000000000000000, 0.0000000000000000000, 0.0000000000000000000 ) ) ;
#394 = DIRECTION ( 'NONE',  ( -1.000000000000000000, -0.0000000000000000000, -0.0000000000000000000 ) ) ;
#395 = DIRECTION ( 'NONE',  ( 0.0000000000000000000, 0.0000000000000000000, -1.000000000000000000 ) ) ;
#396 = CIRCLE ( 'NONE', #102, 12.69999999999999900 ) ;
#397 = CARTESIAN_POINT ( 'NONE',  ( 118.9375000000000000, 0.0000000000000000000, 0.0000000000000000000 ) ) ;
#398 = CC_DESIGN_DATE_AND_TIME_ASSIGNMENT ( #72, #39, ( #360 ) ) ;
#399 = ORIENTED_EDGE ( 'NONE', *, *, #34, .F. ) ;
#400 = DIRECTION ( 'NONE',  ( 0.0000000000000000000, 0.0000000000000000000, 1.000000000000000000 ) ) ;
#401 = EDGE_CURVE ( 'NONE', #45, #299, #396, .T. ) ;
#402 = DIRECTION ( 'NONE',  ( -1.000000000000000000, -0.0000000000000000000, -0.0000000000000000000 ) ) ;
#403 = PERSON_AND_ORGANIZATION ( #297, #289 ) ;
#404 = ORIENTED_EDGE ( 'NONE', *, *, #180, .F. ) ;
#405 = DIRECTION ( 'NONE',  ( -1.000000000000000000, -0.0000000000000000000, -0.0000000000000000000 ) ) ;
ENDSEC;
END-ISO-10303-21;
