ISO-10303-21;
HEADER;
FILE_DESCRIPTION (( 'STEP AP203' ),
    '1' );
FILE_NAME ('STP-86092.STEP',
    '2017-05-19T03:53:20',
    ( '' ),
    ( '' ),
    'SwSTEP 2.0',
    'SolidWorks 2015',
    '' );
FILE_SCHEMA (( 'CONFIG_CONTROL_DESIGN' ));
ENDSEC;

DATA;
#1 = DIRECTION ( 'NONE',  ( 0.0000000000000000000, 0.0000000000000000000, 1.000000000000000000 ) ) ;
#2 = CARTESIAN_POINT ( 'NONE',  ( 113.0000000000000000, 0.0000000000000000000, 0.0000000000000000000 ) ) ;
#3 = LOCAL_TIME ( 11, 53, 20.00000000000000000, #250 ) ;
#4 = DIRECTION ( 'NONE',  ( -1.000000000000000000, -0.0000000000000000000, -0.0000000000000000000 ) ) ;
#5 = ORIENTED_EDGE ( 'NONE', *, *, #319, .F. ) ;
#6 = CARTESIAN_POINT ( 'NONE',  ( 113.0000000000000000, 6.749999999999999100, 0.0000000000000000000 ) ) ;
#7 = CARTESIAN_POINT ( 'NONE',  ( 160.0000000000000000, 0.0000000000000000000, 0.0000000000000000000 ) ) ;
#8 = CARTESIAN_POINT ( 'NONE',  ( 160.0000000000000000, 0.0000000000000000000, 0.0000000000000000000 ) ) ;
#9 = AXIS2_PLACEMENT_3D ( 'NONE', #131, #303, #98 ) ;
#10 = AXIS2_PLACEMENT_3D ( 'NONE', #192, #404, #1 ) ;
#11 = DIRECTION ( 'NONE',  ( -1.000000000000000000, -0.0000000000000000000, -0.0000000000000000000 ) ) ;
#12 = ORIENTED_EDGE ( 'NONE', *, *, #401, .F. ) ;
#13 = VERTEX_POINT ( 'NONE', #309 ) ;
#14 = FACE_OUTER_BOUND ( 'NONE', #331, .T. ) ;
#15 = DIRECTION ( 'NONE',  ( 0.0000000000000000000, 0.0000000000000000000, 1.000000000000000000 ) ) ;
#16 = APPROVAL_ROLE ( '' ) ;
#17 = ORIENTED_EDGE ( 'NONE', *, *, #181, .T. ) ;
#18 = CARTESIAN_POINT ( 'NONE',  ( 122.5999999999999900, 0.0000000000000000000, 0.0000000000000000000 ) ) ;
#19 = FACE_OUTER_BOUND ( 'NONE', #266, .T. ) ;
#20 = CIRCLE ( 'NONE', #25, 10.00000000000000000 ) ;
#21 = COORDINATED_UNIVERSAL_TIME_OFFSET ( 8, 0, .AHEAD. ) ;
#22 = ORIENTED_EDGE ( 'NONE', *, *, #328, .T. ) ;
#23 = AXIS2_PLACEMENT_3D ( 'NONE', #279, #64, #103 ) ;
#24 = LINE ( 'NONE', #60, #119 ) ;
#25 = AXIS2_PLACEMENT_3D ( 'NONE', #88, #255, #292 ) ;
#26 = VERTEX_POINT ( 'NONE', #199 ) ;
#27 = EDGE_CURVE ( 'NONE', #405, #302, #253, .T. ) ;
#28 = EDGE_CURVE ( 'NONE', #248, #178, #108, .T. ) ;
#29 = ADVANCED_FACE ( 'NONE', ( #19 ), #117, .T. ) ;
#30 = LOCAL_TIME ( 11, 53, 20.00000000000000000, #21 ) ;
#31 = FACE_OUTER_BOUND ( 'NONE', #308, .T. ) ;
#32 = AXIS2_PLACEMENT_3D ( 'NONE', #218, #272, #241 ) ;
#33 = DIRECTION ( 'NONE',  ( -1.000000000000000000, -0.0000000000000000000, -0.0000000000000000000 ) ) ;
#34 = FACE_OUTER_BOUND ( 'NONE', #75, .T. ) ;
#35 = CARTESIAN_POINT ( 'NONE',  ( 0.0000000000000000000, 8.266365894244633300E-016, -6.749999999999999100 ) ) ;
#36 = ORIENTED_EDGE ( 'NONE', *, *, #310, .F. ) ;
#37 = CIRCLE ( 'NONE', #155, 6.349999999999999600 ) ;
#38 = PLANE ( 'NONE',  #263 ) ;
#39 = ADVANCED_FACE ( 'NONE', ( #189 ), #40, .T. ) ;
#40 = CONICAL_SURFACE ( 'NONE', #110, 10.00000000000000000, 0.07853981633974500800 ) ;
#41 = ORIENTED_EDGE ( 'NONE', *, *, #120, .F. ) ;
#42 = EDGE_CURVE ( 'NONE', #363, #85, #125, .T. ) ;
#43 = CARTESIAN_POINT ( 'NONE',  ( 0.0000000000000000000, 0.0000000000000000000, 0.0000000000000000000 ) ) ;
#44 = CYLINDRICAL_SURFACE ( 'NONE', #10, 6.749999999999999100 ) ;
#45 = DIRECTION ( 'NONE',  ( 0.0000000000000000000, 0.0000000000000000000, 1.000000000000000000 ) ) ;
#46 =( GEOMETRIC_REPRESENTATION_CONTEXT ( 3 ) GLOBAL_UNCERTAINTY_ASSIGNED_CONTEXT ( ( #348 ) ) GLOBAL_UNIT_ASSIGNED_CONTEXT ( ( #389, #70, #81 ) ) REPRESENTATION_CONTEXT ( 'NONE', 'WORKASPACE' ) );
#47 = VECTOR ( 'NONE', #338, 1000.000000000000100 ) ;
#48 = SECURITY_CLASSIFICATION_LEVEL ( 'unclassified' ) ;
#49 = DIRECTION ( 'NONE',  ( -1.000000000000000000, -0.0000000000000000000, -0.0000000000000000000 ) ) ;
#50 = PERSON_AND_ORGANIZATION ( #373, #357 ) ;
#51 = ORIENTED_EDGE ( 'NONE', *, *, #128, .T. ) ;
#52 = ORIENTED_EDGE ( 'NONE', *, *, #310, .T. ) ;
#53 = EDGE_LOOP ( 'NONE', ( #174, #206, #230, #97 ) ) ;
#54 = CYLINDRICAL_SURFACE ( 'NONE', #234, 6.749999999999999100 ) ;
#55 = COORDINATED_UNIVERSAL_TIME_OFFSET ( 8, 0, .AHEAD. ) ;
#56 = ADVANCED_FACE ( 'NONE', ( #271 ), #38, .T. ) ;
#57 = SECURITY_CLASSIFICATION ( '', '', #48 ) ;
#58 = EDGE_CURVE ( 'NONE', #85, #363, #345, .T. ) ;
#59 = DIRECTION ( 'NONE',  ( -1.000000000000000000, -0.0000000000000000000, -0.0000000000000000000 ) ) ;
#60 = CARTESIAN_POINT ( 'NONE',  ( 0.0000000000000000000, 0.0000000000000000000, 6.349999999999999600 ) ) ;
#61 = LINE ( 'NONE', #376, #385 ) ;
#62 = DIRECTION ( 'NONE',  ( 0.0000000000000000000, 0.0000000000000000000, 1.000000000000000000 ) ) ;
#63 = PERSON_AND_ORGANIZATION ( #373, #357 ) ;
#64 = DIRECTION ( 'NONE',  ( -1.000000000000000000, -0.0000000000000000000, -0.0000000000000000000 ) ) ;
#65 = APPROVAL_PERSON_ORGANIZATION ( #270, #400, #169 ) ;
#66 = ADVANCED_FACE ( 'NONE', ( #31 ), #140, .F. ) ;
#67 = EDGE_CURVE ( 'NONE', #172, #363, #200, .T. ) ;
#68 = VECTOR ( 'NONE', #252, 1000.000000000000000 ) ;
#69 = DIRECTION ( 'NONE',  ( 0.0000000000000000000, 0.0000000000000000000, -1.000000000000000000 ) ) ;
#70 =( NAMED_UNIT ( * ) PLANE_ANGLE_UNIT ( ) SI_UNIT ( $, .RADIAN. ) );
#71 = AXIS2_PLACEMENT_3D ( 'NONE', #79, #291, #392 ) ;
#72 = DIRECTION ( 'NONE',  ( 0.0000000000000000000, 0.0000000000000000000, 1.000000000000000000 ) ) ;
#73 = VERTEX_POINT ( 'NONE', #134 ) ;
#74 = DIRECTION ( 'NONE',  ( 0.0000000000000000000, 0.0000000000000000000, 1.000000000000000000 ) ) ;
#75 = EDGE_LOOP ( 'NONE', ( #368, #51, #239, #36 ) ) ;
#76 = EDGE_CURVE ( 'NONE', #94, #13, #283, .T. ) ;
#77 = PERSON_AND_ORGANIZATION ( #373, #357 ) ;
#78 = DATE_AND_TIME ( #123, #3 ) ;
#79 = CARTESIAN_POINT ( 'NONE',  ( 123.0000000000000000, 0.0000000000000000000, 0.0000000000000000000 ) ) ;
#80 = ORIENTED_EDGE ( 'NONE', *, *, #67, .T. ) ;
#81 =( NAMED_UNIT ( * ) SI_UNIT ( $, .STERADIAN. ) SOLID_ANGLE_UNIT ( ) );
#82 = ORIENTED_EDGE ( 'NONE', *, *, #181, .F. ) ;
#83 = CC_DESIGN_DATE_AND_TIME_ASSIGNMENT ( #78, #364, ( #57 ) ) ;
#84 = MANIFOLD_SOLID_BREP ( '°£®Æ-±ÛÂà1', #217 ) ;
#85 = VERTEX_POINT ( 'NONE', #222 ) ;
#86 = EDGE_LOOP ( 'NONE', ( #403, #262, #260, #395 ) ) ;
#87 = CIRCLE ( 'NONE', #118, 6.749999999999999100 ) ;
#88 = CARTESIAN_POINT ( 'NONE',  ( 160.0000000000000000, 0.0000000000000000000, 0.0000000000000000000 ) ) ;
#89 = CALENDAR_DATE ( 2017, 19, 5 ) ;
#90 = ORIENTED_EDGE ( 'NONE', *, *, #58, .F. ) ;
#91 = ORIENTED_EDGE ( 'NONE', *, *, #76, .F. ) ;
#92 = EDGE_CURVE ( 'NONE', #102, #172, #210, .T. ) ;
#93 = LINE ( 'NONE', #349, #68 ) ;
#94 = VERTEX_POINT ( 'NONE', #161 ) ;
#95 = AXIS2_PLACEMENT_3D ( 'NONE', #126, #220, #69 ) ;
#96 = DIRECTION ( 'NONE',  ( -0.7071067811865460200, 0.0000000000000000000, 0.7071067811865490200 ) ) ;
#97 = ORIENTED_EDGE ( 'NONE', *, *, #359, .F. ) ;
#98 = DIRECTION ( 'NONE',  ( 0.0000000000000000000, 0.0000000000000000000, 1.000000000000000000 ) ) ;
#99 = EDGE_CURVE ( 'NONE', #73, #26, #61, .T. ) ;
#100 = PRODUCT_RELATED_PRODUCT_CATEGORY ( 'detail', '', ( #243 ) ) ;
#101 = DIRECTION ( 'NONE',  ( -1.000000000000000000, -0.0000000000000000000, -0.0000000000000000000 ) ) ;
#102 = VERTEX_POINT ( 'NONE', #133 ) ;
#103 = DIRECTION ( 'NONE',  ( 0.0000000000000000000, 0.0000000000000000000, 1.000000000000000000 ) ) ;
#104 = ADVANCED_FACE ( 'NONE', ( #138 ), #350, .F. ) ;
#105 = PRODUCT_DEFINITION_FORMATION_WITH_SPECIFIED_SOURCE ( 'ANY', '', #243, .NOT_KNOWN. ) ;
#106 = APPROVAL_DATE_TIME ( #198, #400 ) ;
#107 = CARTESIAN_POINT ( 'NONE',  ( 113.0000000000000000, 0.0000000000000000000, 0.0000000000000000000 ) ) ;
#108 = LINE ( 'NONE', #142, #265 ) ;
#109 = CARTESIAN_POINT ( 'NONE',  ( 122.5999999999999900, 8.266365894244633300E-016, -6.749999999999999100 ) ) ;
#110 = AXIS2_PLACEMENT_3D ( 'NONE', #7, #165, #226 ) ;
#111 = CARTESIAN_POINT ( 'NONE',  ( 160.0000000000000000, 0.0000000000000000000, 0.0000000000000000000 ) ) ;
#112 = ORIENTED_EDGE ( 'NONE', *, *, #277, .T. ) ;
#113 = LINE ( 'NONE', #371, #213 ) ;
#114 = CARTESIAN_POINT ( 'NONE',  ( 0.0000000000000000000, 0.0000000000000000000, 0.0000000000000000000 ) ) ;
#115 = APPROVAL_ROLE ( '' ) ;
#116 = CIRCLE ( 'NONE', #336, 12.69999999999999900 ) ;
#117 = CYLINDRICAL_SURFACE ( 'NONE', #343, 12.69999999999999900 ) ;
#118 = AXIS2_PLACEMENT_3D ( 'NONE', #18, #355, #177 ) ;
#119 = VECTOR ( 'NONE', #33, 1000.000000000000000 ) ;
#120 = EDGE_CURVE ( 'NONE', #248, #287, #259, .T. ) ;
#121 = ORIENTED_EDGE ( 'NONE', *, *, #149, .F. ) ;
#122 = PERSON_AND_ORGANIZATION ( #373, #357 ) ;
#123 = CALENDAR_DATE ( 2017, 19, 5 ) ;
#124 = CC_DESIGN_APPROVAL ( #400, ( #57 ) ) ;
#125 = CIRCLE ( 'NONE', #281, 12.69999999999999900 ) ;
#126 = CARTESIAN_POINT ( 'NONE',  ( -1.944126793646422500E-016, 12.69999999999999900, 0.0000000000000000000 ) ) ;
#127 = ORIENTED_EDGE ( 'NONE', *, *, #184, .T. ) ;
#128 = EDGE_CURVE ( 'NONE', #405, #94, #267, .T. ) ;
#129 = CARTESIAN_POINT ( 'NONE',  ( 123.0000000000000000, 8.021436534415163200E-016, -6.349999999999999600 ) ) ;
#130 = FACE_OUTER_BOUND ( 'NONE', #132, .T. ) ;
#131 = CARTESIAN_POINT ( 'NONE',  ( 160.0000000000000000, 0.0000000000000000000, 0.0000000000000000000 ) ) ;
#132 = EDGE_LOOP ( 'NONE', ( #182, #321, #17, #112 ) ) ;
#133 = CARTESIAN_POINT ( 'NONE',  ( 160.0000000000000000, 1.389974117032245900E-015, -10.00000000000000000 ) ) ;
#134 = CARTESIAN_POINT ( 'NONE',  ( 160.0000000000000000, 0.0000000000000000000, 10.00000000000000000 ) ) ;
#135 = LINE ( 'NONE', #173, #208 ) ;
#136 = DIRECTION ( 'NONE',  ( 1.000000000000000000, 0.0000000000000000000, 0.0000000000000000000 ) ) ;
#137 = CC_DESIGN_SECURITY_CLASSIFICATION ( #57, ( #105 ) ) ;
#138 = FACE_OUTER_BOUND ( 'NONE', #235, .T. ) ;
#139 = DIRECTION ( 'NONE',  ( -1.000000000000000000, -0.0000000000000000000, -0.0000000000000000000 ) ) ;
#140 = CONICAL_SURFACE ( 'NONE', #23, 6.349999999999999600, 0.7853981633974505000 ) ;
#141 = DIRECTION ( 'NONE',  ( -1.000000000000000000, -0.0000000000000000000, -0.0000000000000000000 ) ) ;
#142 = CARTESIAN_POINT ( 'NONE',  ( 0.0000000000000000000, 7.776507174585692200E-016, -6.349999999999999600 ) ) ;
#143 = DATE_TIME_ROLE ( 'creation_date' ) ;
#144 = CALENDAR_DATE ( 2017, 19, 5 ) ;
#145 = DIRECTION ( 'NONE',  ( -0.0000000000000000000, 0.0000000000000000000, 1.000000000000000000 ) ) ;
#146 = CARTESIAN_POINT ( 'NONE',  ( 160.0000000000000000, 7.776507174585692200E-016, -6.349999999999999600 ) ) ;
#147 = MECHANICAL_CONTEXT ( 'NONE', #297, 'mechanical' ) ;
#148 = CC_DESIGN_DATE_AND_TIME_ASSIGNMENT ( #317, #143, ( #346 ) ) ;
#149 = EDGE_CURVE ( 'NONE', #287, #244, #24, .T. ) ;
#150 = ORIENTED_EDGE ( 'NONE', *, *, #128, .F. ) ;
#151 = FACE_OUTER_BOUND ( 'NONE', #221, .T. ) ;
#152 = PERSON_AND_ORGANIZATION ( #373, #357 ) ;
#153 = ADVANCED_FACE ( 'NONE', ( #34 ), #44, .F. ) ;
#154 = PLANE ( 'NONE',  #95 ) ;
#155 = AXIS2_PLACEMENT_3D ( 'NONE', #170, #11, #205 ) ;
#156 = CARTESIAN_POINT ( 'NONE',  ( 125.6932472123283900, 1.555301434917138400E-015, -12.69999999999999900 ) ) ;
#157 = EDGE_LOOP ( 'NONE', ( #333, #387, #276, #214 ) ) ;
#158 = DIRECTION ( 'NONE',  ( -1.000000000000000000, -0.0000000000000000000, -0.0000000000000000000 ) ) ;
#159 = CARTESIAN_POINT ( 'NONE',  ( 160.0000000000000000, 1.224646799147353300E-015, -10.00000000000000000 ) ) ;
#160 = FACE_BOUND ( 'NONE', #284, .T. ) ;
#161 = CARTESIAN_POINT ( 'NONE',  ( 113.0000000000000000, 8.266365894244633300E-016, -6.749999999999999100 ) ) ;
#162 = LOCAL_TIME ( 11, 53, 20.00000000000000000, #55 ) ;
#163 = ORIENTED_EDGE ( 'NONE', *, *, #391, .T. ) ;
#164 = DIRECTION ( 'NONE',  ( -1.000000000000000000, -0.0000000000000000000, -0.0000000000000000000 ) ) ;
#165 = DIRECTION ( 'NONE',  ( -1.000000000000000000, -0.0000000000000000000, -0.0000000000000000000 ) ) ;
#166 = CC_DESIGN_PERSON_AND_ORGANIZATION_ASSIGNMENT ( #238, #201, ( #57 ) ) ;
#167 = CONICAL_SURFACE ( 'NONE', #32, 6.349999999999999600, 0.7853981633974505000 ) ;
#168 = CARTESIAN_POINT ( 'NONE',  ( 0.0000000000000000000, 0.0000000000000000000, 0.0000000000000000000 ) ) ;
#169 = APPROVAL_ROLE ( '' ) ;
#170 = CARTESIAN_POINT ( 'NONE',  ( 123.0000000000000000, 0.0000000000000000000, 0.0000000000000000000 ) ) ;
#171 = PERSON_AND_ORGANIZATION_ROLE ( 'design_supplier' ) ;
#172 = VERTEX_POINT ( 'NONE', #156 ) ;
#173 = CARTESIAN_POINT ( 'NONE',  ( 0.0000000000000000000, 0.0000000000000000000, 6.749999999999999100 ) ) ;
#174 = ORIENTED_EDGE ( 'NONE', *, *, #92, .F. ) ;
#175 = APPROVAL_PERSON_ORGANIZATION ( #77, #227, #115 ) ;
#176 = DIRECTION ( 'NONE',  ( 0.0000000000000000000, 0.0000000000000000000, 1.000000000000000000 ) ) ;
#177 = DIRECTION ( 'NONE',  ( 0.0000000000000000000, 0.0000000000000000000, 1.000000000000000000 ) ) ;
#178 = VERTEX_POINT ( 'NONE', #129 ) ;
#179 = APPROVAL_STATUS ( 'not_yet_approved' ) ;
#180 = APPROVAL_STATUS ( 'not_yet_approved' ) ;
#181 = EDGE_CURVE ( 'NONE', #244, #302, #113, .T. ) ;
#182 = ORIENTED_EDGE ( 'NONE', *, *, #391, .F. ) ;
#183 = AXIS2_PLACEMENT_3D ( 'NONE', #251, #312, #145 ) ;
#184 = EDGE_CURVE ( 'NONE', #26, #172, #361, .T. ) ;
#185 = ORIENTED_EDGE ( 'NONE', *, *, #120, .T. ) ;
#186 = ADVANCED_FACE ( 'NONE', ( #130 ), #167, .F. ) ;
#187 = LINE ( 'NONE', #386, #324 ) ;
#188 = CC_DESIGN_PERSON_AND_ORGANIZATION_ASSIGNMENT ( #63, #356, ( #346 ) ) ;
#189 = FACE_OUTER_BOUND ( 'NONE', #53, .T. ) ;
#190 = DIRECTION ( 'NONE',  ( -1.000000000000000000, -0.0000000000000000000, -0.0000000000000000000 ) ) ;
#191 = VECTOR ( 'NONE', #158, 1000.000000000000000 ) ;
#192 = CARTESIAN_POINT ( 'NONE',  ( 0.0000000000000000000, 0.0000000000000000000, 0.0000000000000000000 ) ) ;
#193 = DIRECTION ( 'NONE',  ( -1.000000000000000000, -0.0000000000000000000, -0.0000000000000000000 ) ) ;
#194 = ORIENTED_EDGE ( 'NONE', *, *, #27, .T. ) ;
#195 = DIRECTION ( 'NONE',  ( 0.0000000000000000000, 0.0000000000000000000, 1.000000000000000000 ) ) ;
#196 = SHAPE_DEFINITION_REPRESENTATION ( #329, #334 ) ;
#197 = DIRECTION ( 'NONE',  ( -1.000000000000000000, -0.0000000000000000000, -0.0000000000000000000 ) ) ;
#198 = DATE_AND_TIME ( #209, #162 ) ;
#199 = CARTESIAN_POINT ( 'NONE',  ( 125.6932472123283900, 0.0000000000000000000, 12.69999999999999900 ) ) ;
#200 = LINE ( 'NONE', #306, #367 ) ;
#201 = PERSON_AND_ORGANIZATION_ROLE ( 'classification_officer' ) ;
#202 = ORIENTED_EDGE ( 'NONE', *, *, #393, .F. ) ;
#203 = AXIS2_PLACEMENT_3D ( 'NONE', #107, #49, #286 ) ;
#204 = FACE_OUTER_BOUND ( 'NONE', #268, .T. ) ;
#205 = DIRECTION ( 'NONE',  ( 0.0000000000000000000, 0.0000000000000000000, 1.000000000000000000 ) ) ;
#206 = ORIENTED_EDGE ( 'NONE', *, *, #393, .T. ) ;
#207 = CARTESIAN_POINT ( 'NONE',  ( 0.0000000000000000000, 0.0000000000000000000, 0.0000000000000000000 ) ) ;
#208 = VECTOR ( 'NONE', #388, 1000.000000000000000 ) ;
#209 = CALENDAR_DATE ( 2017, 19, 5 ) ;
#210 = LINE ( 'NONE', #159, #47 ) ;
#211 = DIRECTION ( 'NONE',  ( 1.000000000000000000, 0.0000000000000000000, 0.0000000000000000000 ) ) ;
#212 = CC_DESIGN_APPROVAL ( #227, ( #105 ) ) ;
#213 = VECTOR ( 'NONE', #96, 1000.000000000000100 ) ;
#214 = ORIENTED_EDGE ( 'NONE', *, *, #99, .F. ) ;
#215 = PERSON_AND_ORGANIZATION_ROLE ( 'creator' ) ;
#216 = COORDINATED_UNIVERSAL_TIME_OFFSET ( 8, 0, .AHEAD. ) ;
#217 = CLOSED_SHELL ( 'NONE', ( #104, #153, #66, #332, #29, #225, #300, #39, #278, #186, #282, #56, #342 ) ) ;
#218 = CARTESIAN_POINT ( 'NONE',  ( 123.0000000000000000, 0.0000000000000000000, 0.0000000000000000000 ) ) ;
#219 = AXIS2_PLACEMENT_3D ( 'NONE', #111, #257, #176 ) ;
#220 = DIRECTION ( 'NONE',  ( 1.000000000000000000, 0.0000000000000000000, 0.0000000000000000000 ) ) ;
#221 = EDGE_LOOP ( 'NONE', ( #242, #295, #374, #22 ) ) ;
#222 = CARTESIAN_POINT ( 'NONE',  ( -3.888253587292845100E-016, 0.0000000000000000000, 12.69999999999999900 ) ) ;
#223 = CIRCLE ( 'NONE', #219, 10.00000000000000000 ) ;
#224 = CARTESIAN_POINT ( 'NONE',  ( -3.888253587292845100E-016, 0.0000000000000000000, 0.0000000000000000000 ) ) ;
#225 = ADVANCED_FACE ( 'NONE', ( #204 ), #154, .F. ) ;
#226 = DIRECTION ( 'NONE',  ( 0.0000000000000000000, 0.0000000000000000000, 1.000000000000000000 ) ) ;
#227 = APPROVAL ( #180, 'UNSPECIFIED' ) ;
#228 = CARTESIAN_POINT ( 'NONE',  ( 122.5999999999999900, 0.0000000000000000000, 0.0000000000000000000 ) ) ;
#229 = EDGE_CURVE ( 'NONE', #178, #244, #246, .T. ) ;
#230 = ORIENTED_EDGE ( 'NONE', *, *, #99, .T. ) ;
#231 = APPLICATION_CONTEXT ( 'configuration controlled 3d designs of mechanical parts and assemblies' ) ;
#232 = LOCAL_TIME ( 11, 53, 20.00000000000000000, #337 ) ;
#233 = ORIENTED_EDGE ( 'NONE', *, *, #319, .T. ) ;
#234 = AXIS2_PLACEMENT_3D ( 'NONE', #384, #139, #72 ) ;
#235 = EDGE_LOOP ( 'NONE', ( #41, #313, #360, #121 ) ) ;
#236 = FACE_OUTER_BOUND ( 'NONE', #86, .T. ) ;
#237 = APPLICATION_PROTOCOL_DEFINITION ( 'international standard', 'config_control_design', 1994, #297 ) ;
#238 = PERSON_AND_ORGANIZATION ( #373, #357 ) ;
#239 = ORIENTED_EDGE ( 'NONE', *, *, #76, .T. ) ;
#240 = CC_DESIGN_PERSON_AND_ORGANIZATION_ASSIGNMENT ( #152, #215, ( #105 ) ) ;
#241 = DIRECTION ( 'NONE',  ( 0.0000000000000000000, 0.0000000000000000000, 1.000000000000000000 ) ) ;
#242 = ORIENTED_EDGE ( 'NONE', *, *, #28, .F. ) ;
#243 = PRODUCT ( 'STP-86092', 'STP-86092', '', ( #147 ) ) ;
#244 = VERTEX_POINT ( 'NONE', #322 ) ;
#245 = DIRECTION ( 'NONE',  ( -1.000000000000000000, -0.0000000000000000000, -0.0000000000000000000 ) ) ;
#246 = CIRCLE ( 'NONE', #71, 6.349999999999999600 ) ;
#247 = DIRECTION ( 'NONE',  ( 0.0000000000000000000, 0.0000000000000000000, 1.000000000000000000 ) ) ;
#248 = VERTEX_POINT ( 'NONE', #146 ) ;
#249 = CONICAL_SURFACE ( 'NONE', #274, 10.00000000000000000, 0.07853981633974500800 ) ;
#250 = COORDINATED_UNIVERSAL_TIME_OFFSET ( 8, 0, .AHEAD. ) ;
#251 = CARTESIAN_POINT ( 'NONE',  ( 160.0000000000000000, 10.00000000000000000, 0.0000000000000000000 ) ) ;
#252 = DIRECTION ( 'NONE',  ( -1.000000000000000000, -0.0000000000000000000, -0.0000000000000000000 ) ) ;
#253 = CIRCLE ( 'NONE', #396, 6.749999999999999100 ) ;
#254 = DIRECTION ( 'NONE',  ( 0.0000000000000000000, 0.0000000000000000000, 1.000000000000000000 ) ) ;
#255 = DIRECTION ( 'NONE',  ( -1.000000000000000000, -0.0000000000000000000, -0.0000000000000000000 ) ) ;
#256 = AXIS2_PLACEMENT_3D ( 'NONE', #207, #320, #45 ) ;
#257 = DIRECTION ( 'NONE',  ( -1.000000000000000000, -0.0000000000000000000, -0.0000000000000000000 ) ) ;
#258 = DIRECTION ( 'NONE',  ( 0.0000000000000000000, 0.0000000000000000000, 1.000000000000000000 ) ) ;
#259 = CIRCLE ( 'NONE', #9, 6.349999999999999600 ) ;
#260 = ORIENTED_EDGE ( 'NONE', *, *, #401, .T. ) ;
#261 = PLANE ( 'NONE',  #183 ) ;
#262 = ORIENTED_EDGE ( 'NONE', *, *, #359, .T. ) ;
#263 = AXIS2_PLACEMENT_3D ( 'NONE', #6, #136, #307 ) ;
#264 = CC_DESIGN_PERSON_AND_ORGANIZATION_ASSIGNMENT ( #298, #171, ( #105 ) ) ;
#265 = VECTOR ( 'NONE', #379, 1000.000000000000000 ) ;
#266 = EDGE_LOOP ( 'NONE', ( #127, #80, #90, #12 ) ) ;
#267 = LINE ( 'NONE', #35, #191 ) ;
#268 = EDGE_LOOP ( 'NONE', ( #323, #354 ) ) ;
#269 = CYLINDRICAL_SURFACE ( 'NONE', #362, 6.349999999999999600 ) ;
#270 = PERSON_AND_ORGANIZATION ( #373, #357 ) ;
#271 = FACE_OUTER_BOUND ( 'NONE', #330, .T. ) ;
#272 = DIRECTION ( 'NONE',  ( -1.000000000000000000, -0.0000000000000000000, -0.0000000000000000000 ) ) ;
#273 = FACE_OUTER_BOUND ( 'NONE', #380, .T. ) ;
#274 = AXIS2_PLACEMENT_3D ( 'NONE', #316, #347, #15 ) ;
#275 = DIRECTION ( 'NONE',  ( -0.9969173337331278500, 0.0000000000000000000, 0.07845909572784511000 ) ) ;
#276 = ORIENTED_EDGE ( 'NONE', *, *, #184, .F. ) ;
#277 = EDGE_CURVE ( 'NONE', #302, #405, #87, .T. ) ;
#278 = ADVANCED_FACE ( 'NONE', ( #160, #14 ), #261, .F. ) ;
#279 = CARTESIAN_POINT ( 'NONE',  ( 123.0000000000000000, 0.0000000000000000000, 0.0000000000000000000 ) ) ;
#280 = CYLINDRICAL_SURFACE ( 'NONE', #256, 12.69999999999999900 ) ;
#281 = AXIS2_PLACEMENT_3D ( 'NONE', #378, #164, #341 ) ;
#282 = ADVANCED_FACE ( 'NONE', ( #273 ), #54, .F. ) ;
#283 = CIRCLE ( 'NONE', #299, 6.749999999999999100 ) ;
#284 = EDGE_LOOP ( 'NONE', ( #399, #185 ) ) ;
#285 = EDGE_CURVE ( 'NONE', #73, #102, #223, .T. ) ;
#286 = DIRECTION ( 'NONE',  ( 0.0000000000000000000, 0.0000000000000000000, 1.000000000000000000 ) ) ;
#287 = VERTEX_POINT ( 'NONE', #353 ) ;
#288 = DIRECTION ( 'NONE',  ( -1.000000000000000000, -0.0000000000000000000, -0.0000000000000000000 ) ) ;
#289 = CARTESIAN_POINT ( 'NONE',  ( 122.5999999999999900, 0.0000000000000000000, 6.749999999999999100 ) ) ;
#290 = CIRCLE ( 'NONE', #203, 6.749999999999999100 ) ;
#291 = DIRECTION ( 'NONE',  ( -1.000000000000000000, -0.0000000000000000000, -0.0000000000000000000 ) ) ;
#292 = DIRECTION ( 'NONE',  ( 0.0000000000000000000, 0.0000000000000000000, 1.000000000000000000 ) ) ;
#293 = DATE_AND_TIME ( #89, #30 ) ;
#294 = APPROVAL ( #383, 'UNSPECIFIED' ) ;
#295 = ORIENTED_EDGE ( 'NONE', *, *, #372, .F. ) ;
#296 = DATE_AND_TIME ( #144, #377 ) ;
#297 = APPLICATION_CONTEXT ( 'configuration controlled 3d designs of mechanical parts and assemblies' ) ;
#298 = PERSON_AND_ORGANIZATION ( #373, #357 ) ;
#299 = AXIS2_PLACEMENT_3D ( 'NONE', #2, #193, #375 ) ;
#300 = ADVANCED_FACE ( 'NONE', ( #236 ), #280, .T. ) ;
#301 = AXIS2_PLACEMENT_3D ( 'NONE', #114, #325, #211 ) ;
#302 = VERTEX_POINT ( 'NONE', #289 ) ;
#303 = DIRECTION ( 'NONE',  ( -1.000000000000000000, -0.0000000000000000000, -0.0000000000000000000 ) ) ;
#304 = CARTESIAN_POINT ( 'NONE',  ( 0.0000000000000000000, 0.0000000000000000000, 0.0000000000000000000 ) ) ;
#305 = APPROVAL_DATE_TIME ( #296, #294 ) ;
#306 = CARTESIAN_POINT ( 'NONE',  ( 0.0000000000000000000, 1.555301434917138400E-015, -12.69999999999999900 ) ) ;
#307 = DIRECTION ( 'NONE',  ( 0.0000000000000000000, 0.0000000000000000000, -1.000000000000000000 ) ) ;
#308 = EDGE_LOOP ( 'NONE', ( #335, #163, #194, #82 ) ) ;
#309 = CARTESIAN_POINT ( 'NONE',  ( 113.0000000000000000, 0.0000000000000000000, 6.749999999999999100 ) ) ;
#310 = EDGE_CURVE ( 'NONE', #302, #13, #135, .T. ) ;
#311 = CARTESIAN_POINT ( 'NONE',  ( -3.888253587292845100E-016, 1.555301434917138400E-015, -12.69999999999999900 ) ) ;
#312 = DIRECTION ( 'NONE',  ( -1.000000000000000000, 0.0000000000000000000, -0.0000000000000000000 ) ) ;
#313 = ORIENTED_EDGE ( 'NONE', *, *, #28, .T. ) ;
#314 = APPLICATION_PROTOCOL_DEFINITION ( 'international standard', 'config_control_design', 1994, #231 ) ;
#315 = AXIS2_PLACEMENT_3D ( 'NONE', #8, #141, #74 ) ;
#316 = CARTESIAN_POINT ( 'NONE',  ( 160.0000000000000000, 0.0000000000000000000, 0.0000000000000000000 ) ) ;
#317 = DATE_AND_TIME ( #398, #232 ) ;
#318 = DIRECTION ( 'NONE',  ( 0.0000000000000000000, 0.0000000000000000000, 1.000000000000000000 ) ) ;
#319 = EDGE_CURVE ( 'NONE', #13, #94, #290, .T. ) ;
#320 = DIRECTION ( 'NONE',  ( -1.000000000000000000, -0.0000000000000000000, -0.0000000000000000000 ) ) ;
#321 = ORIENTED_EDGE ( 'NONE', *, *, #328, .F. ) ;
#322 = CARTESIAN_POINT ( 'NONE',  ( 123.0000000000000000, 0.0000000000000000000, 6.349999999999999600 ) ) ;
#323 = ORIENTED_EDGE ( 'NONE', *, *, #58, .T. ) ;
#324 = VECTOR ( 'NONE', #352, 1000.000000000000100 ) ;
#325 = DIRECTION ( 'NONE',  ( 0.0000000000000000000, 0.0000000000000000000, 1.000000000000000000 ) ) ;
#326 = CC_DESIGN_PERSON_AND_ORGANIZATION_ASSIGNMENT ( #122, #397, ( #243 ) ) ;
#327 = ORIENTED_EDGE ( 'NONE', *, *, #285, .F. ) ;
#328 = EDGE_CURVE ( 'NONE', #244, #178, #37, .T. ) ;
#329 = PRODUCT_DEFINITION_SHAPE ( 'NONE', 'NONE',  #346 ) ;
#330 = EDGE_LOOP ( 'NONE', ( #5, #91 ) ) ;
#331 = EDGE_LOOP ( 'NONE', ( #327, #202 ) ) ;
#332 = ADVANCED_FACE ( 'NONE', ( #390 ), #249, .T. ) ;
#333 = ORIENTED_EDGE ( 'NONE', *, *, #285, .T. ) ;
#334 = ADVANCED_BREP_SHAPE_REPRESENTATION ( 'STP-86092', ( #84, #301 ), #46 ) ;
#335 = ORIENTED_EDGE ( 'NONE', *, *, #229, .F. ) ;
#336 = AXIS2_PLACEMENT_3D ( 'NONE', #351, #288, #258 ) ;
#337 = COORDINATED_UNIVERSAL_TIME_OFFSET ( 8, 0, .AHEAD. ) ;
#338 = DIRECTION ( 'NONE',  ( -0.9969173337331278500, 9.608468044710128900E-018, -0.07845909572784511000 ) ) ;
#339 = ORIENTED_EDGE ( 'NONE', *, *, #277, .F. ) ;
#340 = DESIGN_CONTEXT ( 'detailed design', #231, 'design' ) ;
#341 = DIRECTION ( 'NONE',  ( 0.0000000000000000000, 0.0000000000000000000, 1.000000000000000000 ) ) ;
#342 = ADVANCED_FACE ( 'NONE', ( #151 ), #269, .F. ) ;
#343 = AXIS2_PLACEMENT_3D ( 'NONE', #168, #197, #318 ) ;
#344 = CIRCLE ( 'NONE', #315, 6.349999999999999600 ) ;
#345 = CIRCLE ( 'NONE', #366, 12.69999999999999900 ) ;
#346 = PRODUCT_DEFINITION ( 'UNKNOWN', '', #105, #340 ) ;
#347 = DIRECTION ( 'NONE',  ( -1.000000000000000000, -0.0000000000000000000, -0.0000000000000000000 ) ) ;
#348 = UNCERTAINTY_MEASURE_WITH_UNIT (LENGTH_MEASURE( 1.000000000000000100E-005 ), #389, 'distance_accuracy_value', 'NONE');
#349 = CARTESIAN_POINT ( 'NONE',  ( 0.0000000000000000000, 0.0000000000000000000, 12.69999999999999900 ) ) ;
#350 = CYLINDRICAL_SURFACE ( 'NONE', #381, 6.349999999999999600 ) ;
#351 = CARTESIAN_POINT ( 'NONE',  ( 125.6932472123283900, 0.0000000000000000000, 0.0000000000000000000 ) ) ;
#352 = DIRECTION ( 'NONE',  ( -0.7071067811865460200, 8.659560562354952600E-017, -0.7071067811865490200 ) ) ;
#353 = CARTESIAN_POINT ( 'NONE',  ( 160.0000000000000000, 0.0000000000000000000, 6.349999999999999600 ) ) ;
#354 = ORIENTED_EDGE ( 'NONE', *, *, #42, .T. ) ;
#355 = DIRECTION ( 'NONE',  ( -1.000000000000000000, -0.0000000000000000000, -0.0000000000000000000 ) ) ;
#356 = PERSON_AND_ORGANIZATION_ROLE ( 'creator' ) ;
#357 = ORGANIZATION ( 'UNSPECIFIED', 'UNSPECIFIED', '' ) ;
#358 = APPROVAL_DATE_TIME ( #293, #227 ) ;
#359 = EDGE_CURVE ( 'NONE', #172, #26, #116, .T. ) ;
#360 = ORIENTED_EDGE ( 'NONE', *, *, #229, .T. ) ;
#361 = CIRCLE ( 'NONE', #394, 12.69999999999999900 ) ;
#362 = AXIS2_PLACEMENT_3D ( 'NONE', #43, #382, #254 ) ;
#363 = VERTEX_POINT ( 'NONE', #311 ) ;
#364 = DATE_TIME_ROLE ( 'classification_date' ) ;
#365 = APPROVAL_PERSON_ORGANIZATION ( #50, #294, #16 ) ;
#366 = AXIS2_PLACEMENT_3D ( 'NONE', #224, #4, #195 ) ;
#367 = VECTOR ( 'NONE', #101, 1000.000000000000000 ) ;
#368 = ORIENTED_EDGE ( 'NONE', *, *, #27, .F. ) ;
#369 = CC_DESIGN_APPROVAL ( #294, ( #346 ) ) ;
#370 = DIRECTION ( 'NONE',  ( 0.0000000000000000000, 0.0000000000000000000, 1.000000000000000000 ) ) ;
#371 = CARTESIAN_POINT ( 'NONE',  ( 123.0000000000000000, 0.0000000000000000000, 6.349999999999999600 ) ) ;
#372 = EDGE_CURVE ( 'NONE', #287, #248, #344, .T. ) ;
#373 = PERSON ( 'UNSPECIFIED', 'UNSPECIFIED', 'UNSPECIFIED', ('UNSPECIFIED'), ('UNSPECIFIED'), ('UNSPECIFIED') ) ;
#374 = ORIENTED_EDGE ( 'NONE', *, *, #149, .T. ) ;
#375 = DIRECTION ( 'NONE',  ( 0.0000000000000000000, 0.0000000000000000000, 1.000000000000000000 ) ) ;
#376 = CARTESIAN_POINT ( 'NONE',  ( 160.0000000000000000, 0.0000000000000000000, 10.00000000000000000 ) ) ;
#377 = LOCAL_TIME ( 11, 53, 20.00000000000000000, #216 ) ;
#378 = CARTESIAN_POINT ( 'NONE',  ( -3.888253587292845100E-016, 0.0000000000000000000, 0.0000000000000000000 ) ) ;
#379 = DIRECTION ( 'NONE',  ( -1.000000000000000000, -0.0000000000000000000, -0.0000000000000000000 ) ) ;
#380 = EDGE_LOOP ( 'NONE', ( #150, #339, #52, #233 ) ) ;
#381 = AXIS2_PLACEMENT_3D ( 'NONE', #304, #245, #62 ) ;
#382 = DIRECTION ( 'NONE',  ( -1.000000000000000000, -0.0000000000000000000, -0.0000000000000000000 ) ) ;
#383 = APPROVAL_STATUS ( 'not_yet_approved' ) ;
#384 = CARTESIAN_POINT ( 'NONE',  ( 0.0000000000000000000, 0.0000000000000000000, 0.0000000000000000000 ) ) ;
#385 = VECTOR ( 'NONE', #275, 1000.000000000000100 ) ;
#386 = CARTESIAN_POINT ( 'NONE',  ( 123.0000000000000000, 7.776507174585692200E-016, -6.349999999999999600 ) ) ;
#387 = ORIENTED_EDGE ( 'NONE', *, *, #92, .T. ) ;
#388 = DIRECTION ( 'NONE',  ( -1.000000000000000000, -0.0000000000000000000, -0.0000000000000000000 ) ) ;
#389 =( LENGTH_UNIT ( ) NAMED_UNIT ( * ) SI_UNIT ( .MILLI., .METRE. ) );
#390 = FACE_OUTER_BOUND ( 'NONE', #157, .T. ) ;
#391 = EDGE_CURVE ( 'NONE', #178, #405, #187, .T. ) ;
#392 = DIRECTION ( 'NONE',  ( 0.0000000000000000000, 0.0000000000000000000, 1.000000000000000000 ) ) ;
#393 = EDGE_CURVE ( 'NONE', #102, #73, #20, .T. ) ;
#394 = AXIS2_PLACEMENT_3D ( 'NONE', #402, #190, #370 ) ;
#395 = ORIENTED_EDGE ( 'NONE', *, *, #42, .F. ) ;
#396 = AXIS2_PLACEMENT_3D ( 'NONE', #228, #59, #247 ) ;
#397 = PERSON_AND_ORGANIZATION_ROLE ( 'design_owner' ) ;
#398 = CALENDAR_DATE ( 2017, 19, 5 ) ;
#399 = ORIENTED_EDGE ( 'NONE', *, *, #372, .T. ) ;
#400 = APPROVAL ( #179, 'UNSPECIFIED' ) ;
#401 = EDGE_CURVE ( 'NONE', #26, #85, #93, .T. ) ;
#402 = CARTESIAN_POINT ( 'NONE',  ( 125.6932472123283900, 0.0000000000000000000, 0.0000000000000000000 ) ) ;
#403 = ORIENTED_EDGE ( 'NONE', *, *, #67, .F. ) ;
#404 = DIRECTION ( 'NONE',  ( -1.000000000000000000, -0.0000000000000000000, -0.0000000000000000000 ) ) ;
#405 = VERTEX_POINT ( 'NONE', #109 ) ;
ENDSEC;
END-ISO-10303-21;
