ISO-10303-21;
HEADER;
FILE_DESCRIPTION (( 'STEP AP203' ),
    '1' );
FILE_NAME ('STP-86090.STEP',
    '2017-05-19T03:55:05',
    ( '' ),
    ( '' ),
    'SwSTEP 2.0',
    'SolidWorks 2015',
    '' );
FILE_SCHEMA (( 'CONFIG_CONTROL_DESIGN' ));
ENDSEC;

DATA;
#1 = DIRECTION ( 'NONE',  ( 1.000000000000000000, 0.0000000000000000000, 0.0000000000000000000 ) ) ;
#2 = DIRECTION ( 'NONE',  ( -1.000000000000000000, -0.0000000000000000000, -0.0000000000000000000 ) ) ;
#3 = LINE ( 'NONE', #306, #133 ) ;
#4 = ORIENTED_EDGE ( 'NONE', *, *, #62, .T. ) ;
#5 = AXIS2_PLACEMENT_3D ( 'NONE', #247, #54, #217 ) ;
#6 = VECTOR ( 'NONE', #377, 1000.000000000000000 ) ;
#7 = AXIS2_PLACEMENT_3D ( 'NONE', #143, #336, #200 ) ;
#8 = CARTESIAN_POINT ( 'NONE',  ( 125.6932472123283900, 0.0000000000000000000, 0.0000000000000000000 ) ) ;
#9 = CIRCLE ( 'NONE', #386, 4.762500000000000200 ) ;
#10 = ORIENTED_EDGE ( 'NONE', *, *, #264, .F. ) ;
#11 = DIRECTION ( 'NONE',  ( -1.000000000000000000, -0.0000000000000000000, -0.0000000000000000000 ) ) ;
#12 = ORIENTED_EDGE ( 'NONE', *, *, #62, .F. ) ;
#13 = APPLICATION_PROTOCOL_DEFINITION ( 'international standard', 'config_control_design', 1994, #269 ) ;
#14 = PERSON_AND_ORGANIZATION ( #60, #321 ) ;
#15 = DIRECTION ( 'NONE',  ( -0.9969173337331278500, 9.608468044710128900E-018, -0.07845909572784511000 ) ) ;
#16 = DIRECTION ( 'NONE',  ( 0.0000000000000000000, 0.0000000000000000000, 1.000000000000000000 ) ) ;
#17 = FACE_OUTER_BOUND ( 'NONE', #326, .T. ) ;
#18 = PERSON_AND_ORGANIZATION_ROLE ( 'design_owner' ) ;
#19 = DIRECTION ( 'NONE',  ( -1.000000000000000000, -0.0000000000000000000, -0.0000000000000000000 ) ) ;
#20 = DIRECTION ( 'NONE',  ( -1.000000000000000000, -0.0000000000000000000, -0.0000000000000000000 ) ) ;
#21 = PERSON_AND_ORGANIZATION ( #60, #321 ) ;
#22 = CARTESIAN_POINT ( 'NONE',  ( 160.0000000000000000, 0.0000000000000000000, 0.0000000000000000000 ) ) ;
#23 = FACE_OUTER_BOUND ( 'NONE', #130, .T. ) ;
#24 = ORIENTED_EDGE ( 'NONE', *, *, #45, .T. ) ;
#25 = ORIENTED_EDGE ( 'NONE', *, *, #77, .T. ) ;
#26 = CC_DESIGN_APPROVAL ( #338, ( #367 ) ) ;
#27 = CARTESIAN_POINT ( 'NONE',  ( 118.0000000000000000, 6.429395695523603200E-016, -5.249999999999999100 ) ) ;
#28 = EDGE_CURVE ( 'NONE', #139, #248, #56, .T. ) ;
#29 = ORIENTED_EDGE ( 'NONE', *, *, #264, .T. ) ;
#30 = DATE_TIME_ROLE ( 'classification_date' ) ;
#31 = CARTESIAN_POINT ( 'NONE',  ( 160.0000000000000000, 0.0000000000000000000, 4.762500000000000200 ) ) ;
#32 = APPROVAL_ROLE ( '' ) ;
#33 = ORIENTED_EDGE ( 'NONE', *, *, #220, .F. ) ;
#34 = ORIENTED_EDGE ( 'NONE', *, *, #271, .F. ) ;
#35 = CARTESIAN_POINT ( 'NONE',  ( 0.0000000000000000000, 0.0000000000000000000, 0.0000000000000000000 ) ) ;
#36 = CONICAL_SURFACE ( 'NONE', #305, 10.00000000000000000, 0.07853981633974500800 ) ;
#37 = ORIENTED_EDGE ( 'NONE', *, *, #90, .T. ) ;
#38 = CARTESIAN_POINT ( 'NONE',  ( 160.0000000000000000, 10.00000000000000000, 0.0000000000000000000 ) ) ;
#39 = DIRECTION ( 'NONE',  ( 0.0000000000000000000, 0.0000000000000000000, -1.000000000000000000 ) ) ;
#40 = DESIGN_CONTEXT ( 'detailed design', #269, 'design' ) ;
#41 = CONICAL_SURFACE ( 'NONE', #346, 4.762500000000001100, 0.7853981633974456100 ) ;
#42 = PERSON_AND_ORGANIZATION_ROLE ( 'creator' ) ;
#43 = LINE ( 'NONE', #53, #265 ) ;
#44 = CARTESIAN_POINT ( 'NONE',  ( -3.888253587292845100E-016, 1.555301434917138400E-015, -12.69999999999999900 ) ) ;
#45 = EDGE_CURVE ( 'NONE', #164, #298, #194, .T. ) ;
#46 = CARTESIAN_POINT ( 'NONE',  ( 0.0000000000000000000, 0.0000000000000000000, 5.249999999999999100 ) ) ;
#47 = CONICAL_SURFACE ( 'NONE', #161, 4.762500000000001100, 0.7853981633974456100 ) ;
#48 = VERTEX_POINT ( 'NONE', #398 ) ;
#49 = AXIS2_PLACEMENT_3D ( 'NONE', #402, #86, #39 ) ;
#50 = CC_DESIGN_SECURITY_CLASSIFICATION ( #210, ( #88 ) ) ;
#51 = DIRECTION ( 'NONE',  ( -1.000000000000000000, -0.0000000000000000000, -0.0000000000000000000 ) ) ;
#52 = PERSON_AND_ORGANIZATION ( #60, #321 ) ;
#53 = CARTESIAN_POINT ( 'NONE',  ( 0.0000000000000000000, 6.429395695523603200E-016, -5.249999999999999100 ) ) ;
#54 = DIRECTION ( 'NONE',  ( -1.000000000000000000, -0.0000000000000000000, -0.0000000000000000000 ) ) ;
#55 = CYLINDRICAL_SURFACE ( 'NONE', #227, 5.249999999999999100 ) ;
#56 = CIRCLE ( 'NONE', #404, 12.69999999999999900 ) ;
#57 = ORIENTED_EDGE ( 'NONE', *, *, #118, .T. ) ;
#58 = APPROVAL_STATUS ( 'not_yet_approved' ) ;
#59 = EDGE_CURVE ( 'NONE', #48, #248, #319, .T. ) ;
#60 = PERSON ( 'UNSPECIFIED', 'UNSPECIFIED', 'UNSPECIFIED', ('UNSPECIFIED'), ('UNSPECIFIED'), ('UNSPECIFIED') ) ;
#61 = APPROVAL_ROLE ( '' ) ;
#62 = EDGE_CURVE ( 'NONE', #255, #322, #43, .T. ) ;
#63 = PERSON_AND_ORGANIZATION_ROLE ( 'design_supplier' ) ;
#64 = CIRCLE ( 'NONE', #7, 10.00000000000000000 ) ;
#65 = ORIENTED_EDGE ( 'NONE', *, *, #108, .F. ) ;
#66 = CC_DESIGN_DATE_AND_TIME_ASSIGNMENT ( #159, #251, ( #367 ) ) ;
#67 = AXIS2_PLACEMENT_3D ( 'NONE', #38, #180, #292 ) ;
#68 = FACE_BOUND ( 'NONE', #149, .T. ) ;
#69 = EDGE_LOOP ( 'NONE', ( #179, #316 ) ) ;
#70 = DIRECTION ( 'NONE',  ( -1.000000000000000000, -0.0000000000000000000, -0.0000000000000000000 ) ) ;
#71 = ORIENTED_EDGE ( 'NONE', *, *, #77, .F. ) ;
#72 = DIRECTION ( 'NONE',  ( 0.0000000000000000000, 0.0000000000000000000, 1.000000000000000000 ) ) ;
#73 = ADVANCED_FACE ( 'NONE', ( #68, #85 ), #76, .F. ) ;
#74 = AXIS2_PLACEMENT_3D ( 'NONE', #35, #389, #144 ) ;
#75 = ADVANCED_FACE ( 'NONE', ( #134 ), #104, .F. ) ;
#76 = PLANE ( 'NONE',  #67 ) ;
#77 = EDGE_CURVE ( 'NONE', #123, #270, #370, .T. ) ;
#78 = ORIENTED_EDGE ( 'NONE', *, *, #113, .F. ) ;
#79 = ORIENTED_EDGE ( 'NONE', *, *, #378, .F. ) ;
#80 = MECHANICAL_CONTEXT ( 'NONE', #213, 'mechanical' ) ;
#81 = DIRECTION ( 'NONE',  ( 0.0000000000000000000, 0.0000000000000000000, 1.000000000000000000 ) ) ;
#82 = SECURITY_CLASSIFICATION_LEVEL ( 'unclassified' ) ;
#83 = PERSON_AND_ORGANIZATION_ROLE ( 'classification_officer' ) ;
#84 = CARTESIAN_POINT ( 'NONE',  ( 128.0000000000000000, 0.0000000000000000000, 0.0000000000000000000 ) ) ;
#85 = FACE_OUTER_BOUND ( 'NONE', #69, .T. ) ;
#86 = DIRECTION ( 'NONE',  ( 1.000000000000000000, 0.0000000000000000000, 0.0000000000000000000 ) ) ;
#87 = DIRECTION ( 'NONE',  ( -1.000000000000000000, -0.0000000000000000000, -0.0000000000000000000 ) ) ;
#88 = PRODUCT_DEFINITION_FORMATION_WITH_SPECIFIED_SOURCE ( 'ANY', '', #214, .NOT_KNOWN. ) ;
#89 = CARTESIAN_POINT ( 'NONE',  ( 0.0000000000000000000, 0.0000000000000000000, 4.762500000000001100 ) ) ;
#90 = EDGE_CURVE ( 'NONE', #270, #255, #360, .T. ) ;
#91 = CARTESIAN_POINT ( 'NONE',  ( 128.0000000000000000, 0.0000000000000000000, 4.762500000000001100 ) ) ;
#92 = ORIENTED_EDGE ( 'NONE', *, *, #173, .T. ) ;
#93 = DIRECTION ( 'NONE',  ( 0.0000000000000000000, 0.0000000000000000000, 1.000000000000000000 ) ) ;
#94 = AXIS2_PLACEMENT_3D ( 'NONE', #369, #1, #249 ) ;
#95 = EDGE_CURVE ( 'NONE', #381, #123, #279, .T. ) ;
#96 = CARTESIAN_POINT ( 'NONE',  ( 128.0000000000000000, 0.0000000000000000000, 4.762500000000001100 ) ) ;
#97 = APPROVAL_PERSON_ORGANIZATION ( #14, #231, #61 ) ;
#98 = CLOSED_SHELL ( 'NONE', ( #75, #229, #228, #359, #160, #352, #291, #136, #73, #166, #168, #287, #295 ) ) ;
#99 = VERTEX_POINT ( 'NONE', #353 ) ;
#100 = PLANE ( 'NONE',  #94 ) ;
#101 = CC_DESIGN_PERSON_AND_ORGANIZATION_ASSIGNMENT ( #110, #18, ( #214 ) ) ;
#102 = PRODUCT_RELATED_PRODUCT_CATEGORY ( 'detail', '', ( #214 ) ) ;
#103 = LINE ( 'NONE', #392, #239 ) ;
#104 = CYLINDRICAL_SURFACE ( 'NONE', #309, 4.762500000000001100 ) ;
#105 = CALENDAR_DATE ( 2017, 19, 5 ) ;
#106 = ORIENTED_EDGE ( 'NONE', *, *, #253, .T. ) ;
#107 = DIRECTION ( 'NONE',  ( 0.0000000000000000000, 0.0000000000000000000, 1.000000000000000000 ) ) ;
#108 = EDGE_CURVE ( 'NONE', #99, #381, #154, .T. ) ;
#109 = COORDINATED_UNIVERSAL_TIME_OFFSET ( 8, 0, .AHEAD. ) ;
#110 = PERSON_AND_ORGANIZATION ( #60, #321 ) ;
#111 = ORIENTED_EDGE ( 'NONE', *, *, #131, .F. ) ;
#112 = DIRECTION ( 'NONE',  ( -1.000000000000000000, -0.0000000000000000000, -0.0000000000000000000 ) ) ;
#113 = EDGE_CURVE ( 'NONE', #248, #139, #178, .T. ) ;
#114 = APPROVAL_DATE_TIME ( #189, #338 ) ;
#115 = CARTESIAN_POINT ( 'NONE',  ( 0.0000000000000000000, 1.555301434917138400E-015, -12.69999999999999900 ) ) ;
#116 = AXIS2_PLACEMENT_3D ( 'NONE', #274, #379, #162 ) ;
#117 = DIRECTION ( 'NONE',  ( 0.0000000000000000000, 0.0000000000000000000, 1.000000000000000000 ) ) ;
#118 = EDGE_CURVE ( 'NONE', #270, #123, #254, .T. ) ;
#119 = EDGE_LOOP ( 'NONE', ( #405, #106, #299, #186 ) ) ;
#120 = CC_DESIGN_DATE_AND_TIME_ASSIGNMENT ( #132, #30, ( #210 ) ) ;
#121 = LOCAL_TIME ( 11, 55, 5.000000000000000000, #156 ) ;
#122 = CARTESIAN_POINT ( 'NONE',  ( 125.6932472123283900, 0.0000000000000000000, 0.0000000000000000000 ) ) ;
#123 = VERTEX_POINT ( 'NONE', #91 ) ;
#124 = CARTESIAN_POINT ( 'NONE',  ( 118.0000000000000000, 0.0000000000000000000, 0.0000000000000000000 ) ) ;
#125 =( NAMED_UNIT ( * ) SI_UNIT ( $, .STERADIAN. ) SOLID_ANGLE_UNIT ( ) );
#126 = FACE_OUTER_BOUND ( 'NONE', #311, .T. ) ;
#127 = EDGE_LOOP ( 'NONE', ( #376, #71, #340, #155 ) ) ;
#128 = UNCERTAINTY_MEASURE_WITH_UNIT (LENGTH_MEASURE( 1.000000000000000100E-005 ), #146, 'distance_accuracy_value', 'NONE');
#129 = FACE_OUTER_BOUND ( 'NONE', #192, .T. ) ;
#130 = EDGE_LOOP ( 'NONE', ( #10, #4, #280, #221 ) ) ;
#131 = EDGE_CURVE ( 'NONE', #164, #255, #206, .T. ) ;
#132 = DATE_AND_TIME ( #219, #223 ) ;
#133 = VECTOR ( 'NONE', #148, 1000.000000000000000 ) ;
#134 = FACE_OUTER_BOUND ( 'NONE', #286, .T. ) ;
#135 = CC_DESIGN_PERSON_AND_ORGANIZATION_ASSIGNMENT ( #347, #202, ( #367 ) ) ;
#136 = ADVANCED_FACE ( 'NONE', ( #393 ), #36, .T. ) ;
#137 = DIRECTION ( 'NONE',  ( 0.0000000000000000000, 0.0000000000000000000, 1.000000000000000000 ) ) ;
#138 = FACE_OUTER_BOUND ( 'NONE', #127, .T. ) ;
#139 = VERTEX_POINT ( 'NONE', #301 ) ;
#140 = DIRECTION ( 'NONE',  ( 0.0000000000000000000, 0.0000000000000000000, 1.000000000000000000 ) ) ;
#141 = DIRECTION ( 'NONE',  ( -1.000000000000000000, -0.0000000000000000000, -0.0000000000000000000 ) ) ;
#142 = EDGE_CURVE ( 'NONE', #349, #139, #3, .T. ) ;
#143 = CARTESIAN_POINT ( 'NONE',  ( 160.0000000000000000, 0.0000000000000000000, 0.0000000000000000000 ) ) ;
#144 = DIRECTION ( 'NONE',  ( 0.0000000000000000000, 0.0000000000000000000, 1.000000000000000000 ) ) ;
#145 = CYLINDRICAL_SURFACE ( 'NONE', #5, 4.762500000000001100 ) ;
#146 =( LENGTH_UNIT ( ) NAMED_UNIT ( * ) SI_UNIT ( .MILLI., .METRE. ) );
#147 = CIRCLE ( 'NONE', #313, 5.250000000000000000 ) ;
#148 = DIRECTION ( 'NONE',  ( -1.000000000000000000, -0.0000000000000000000, -0.0000000000000000000 ) ) ;
#149 = EDGE_LOOP ( 'NONE', ( #371, #244 ) ) ;
#150 = VECTOR ( 'NONE', #233, 1000.000000000000100 ) ;
#151 = DIRECTION ( 'NONE',  ( -1.000000000000000000, -0.0000000000000000000, -0.0000000000000000000 ) ) ;
#152 = APPROVAL_DATE_TIME ( #383, #231 ) ;
#153 = DIRECTION ( 'NONE',  ( 0.0000000000000000000, 0.0000000000000000000, 1.000000000000000000 ) ) ;
#154 = CIRCLE ( 'NONE', #116, 4.762500000000000200 ) ;
#155 = ORIENTED_EDGE ( 'NONE', *, *, #131, .T. ) ;
#156 = COORDINATED_UNIVERSAL_TIME_OFFSET ( 8, 0, .AHEAD. ) ;
#157 = ORIENTED_EDGE ( 'NONE', *, *, #28, .F. ) ;
#158 = ORIENTED_EDGE ( 'NONE', *, *, #317, .F. ) ;
#159 = DATE_AND_TIME ( #314, #391 ) ;
#160 = ADVANCED_FACE ( 'NONE', ( #191 ), #283, .T. ) ;
#161 = AXIS2_PLACEMENT_3D ( 'NONE', #366, #323, #387 ) ;
#162 = DIRECTION ( 'NONE',  ( 0.0000000000000000000, 0.0000000000000000000, 1.000000000000000000 ) ) ;
#163 = ORIENTED_EDGE ( 'NONE', *, *, #28, .T. ) ;
#164 = VERTEX_POINT ( 'NONE', #174 ) ;
#165 =( GEOMETRIC_REPRESENTATION_CONTEXT ( 3 ) GLOBAL_UNCERTAINTY_ASSIGNED_CONTEXT ( ( #128 ) ) GLOBAL_UNIT_ASSIGNED_CONTEXT ( ( #146, #344, #125 ) ) REPRESENTATION_CONTEXT ( 'NONE', 'WORKASPACE' ) );
#166 = ADVANCED_FACE ( 'NONE', ( #138 ), #47, .F. ) ;
#167 = CARTESIAN_POINT ( 'NONE',  ( 160.0000000000000000, 0.0000000000000000000, 0.0000000000000000000 ) ) ;
#168 = ADVANCED_FACE ( 'NONE', ( #126 ), #380, .F. ) ;
#169 = APPROVAL_PERSON_ORGANIZATION ( #325, #338, #32 ) ;
#170 = ORIENTED_EDGE ( 'NONE', *, *, #59, .T. ) ;
#171 = ADVANCED_BREP_SHAPE_REPRESENTATION ( 'STP-86090', ( #385, #250 ), #165 ) ;
#172 = CARTESIAN_POINT ( 'NONE',  ( -3.888253587292845100E-016, 0.0000000000000000000, 0.0000000000000000000 ) ) ;
#173 = EDGE_CURVE ( 'NONE', #308, #48, #374, .T. ) ;
#174 = CARTESIAN_POINT ( 'NONE',  ( 127.5125000000000000, 0.0000000000000000000, 5.250000000000000000 ) ) ;
#175 = APPLICATION_PROTOCOL_DEFINITION ( 'international standard', 'config_control_design', 1994, #213 ) ;
#176 = CARTESIAN_POINT ( 'NONE',  ( 160.0000000000000000, 1.389974117032245900E-015, -10.00000000000000000 ) ) ;
#177 = VECTOR ( 'NONE', #87, 1000.000000000000000 ) ;
#178 = CIRCLE ( 'NONE', #332, 12.69999999999999900 ) ;
#179 = ORIENTED_EDGE ( 'NONE', *, *, #348, .F. ) ;
#180 = DIRECTION ( 'NONE',  ( -1.000000000000000000, 0.0000000000000000000, -0.0000000000000000000 ) ) ;
#181 = DIRECTION ( 'NONE',  ( -1.000000000000000000, -0.0000000000000000000, -0.0000000000000000000 ) ) ;
#182 = VECTOR ( 'NONE', #382, 1000.000000000000000 ) ;
#183 = ORIENTED_EDGE ( 'NONE', *, *, #277, .T. ) ;
#184 = ORIENTED_EDGE ( 'NONE', *, *, #95, .T. ) ;
#185 = CARTESIAN_POINT ( 'NONE',  ( 118.0000000000000000, 0.0000000000000000000, 5.249999999999999100 ) ) ;
#186 = ORIENTED_EDGE ( 'NONE', *, *, #277, .F. ) ;
#187 = APPROVAL_STATUS ( 'not_yet_approved' ) ;
#188 = AXIS2_PLACEMENT_3D ( 'NONE', #372, #2, #215 ) ;
#189 = DATE_AND_TIME ( #397, #209 ) ;
#190 = APPROVAL ( #187, 'UNSPECIFIED' ) ;
#191 = FACE_OUTER_BOUND ( 'NONE', #350, .T. ) ;
#192 = EDGE_LOOP ( 'NONE', ( #208, #183, #388, #78 ) ) ;
#193 = LOCAL_TIME ( 11, 55, 5.000000000000000000, #109 ) ;
#194 = LINE ( 'NONE', #46, #6 ) ;
#195 = AXIS2_PLACEMENT_3D ( 'NONE', #201, #20, #384 ) ;
#196 = DIRECTION ( 'NONE',  ( -1.000000000000000000, -0.0000000000000000000, -0.0000000000000000000 ) ) ;
#197 = CARTESIAN_POINT ( 'NONE',  ( 128.0000000000000000, 5.832380380939271100E-016, -4.762500000000001100 ) ) ;
#198 = CIRCLE ( 'NONE', #218, 12.69999999999999900 ) ;
#199 = AXIS2_PLACEMENT_3D ( 'NONE', #8, #203, #107 ) ;
#200 = DIRECTION ( 'NONE',  ( 0.0000000000000000000, 0.0000000000000000000, 1.000000000000000000 ) ) ;
#201 = CARTESIAN_POINT ( 'NONE',  ( 128.0000000000000000, 0.0000000000000000000, 0.0000000000000000000 ) ) ;
#202 = PERSON_AND_ORGANIZATION_ROLE ( 'creator' ) ;
#203 = DIRECTION ( 'NONE',  ( -1.000000000000000000, -0.0000000000000000000, -0.0000000000000000000 ) ) ;
#204 = DIRECTION ( 'NONE',  ( 0.0000000000000000000, 0.0000000000000000000, 1.000000000000000000 ) ) ;
#205 = AXIS2_PLACEMENT_3D ( 'NONE', #266, #11, #268 ) ;
#206 = CIRCLE ( 'NONE', #390, 5.250000000000000000 ) ;
#207 = DIRECTION ( 'NONE',  ( -1.000000000000000000, -0.0000000000000000000, -0.0000000000000000000 ) ) ;
#208 = ORIENTED_EDGE ( 'NONE', *, *, #59, .F. ) ;
#209 = LOCAL_TIME ( 11, 55, 5.000000000000000000, #243 ) ;
#210 = SECURITY_CLASSIFICATION ( '', '', #82 ) ;
#211 = FACE_OUTER_BOUND ( 'NONE', #284, .T. ) ;
#212 = ORIENTED_EDGE ( 'NONE', *, *, #318, .F. ) ;
#213 = APPLICATION_CONTEXT ( 'configuration controlled 3d designs of mechanical parts and assemblies' ) ;
#214 = PRODUCT ( 'STP-86090', 'STP-86090', '', ( #80 ) ) ;
#215 = DIRECTION ( 'NONE',  ( 0.0000000000000000000, 0.0000000000000000000, 1.000000000000000000 ) ) ;
#216 = ORIENTED_EDGE ( 'NONE', *, *, #348, .T. ) ;
#217 = DIRECTION ( 'NONE',  ( 0.0000000000000000000, 0.0000000000000000000, 1.000000000000000000 ) ) ;
#218 = AXIS2_PLACEMENT_3D ( 'NONE', #122, #151, #273 ) ;
#219 = CALENDAR_DATE ( 2017, 19, 5 ) ;
#220 = EDGE_CURVE ( 'NONE', #298, #322, #234, .T. ) ;
#221 = ORIENTED_EDGE ( 'NONE', *, *, #45, .F. ) ;
#222 = ORIENTED_EDGE ( 'NONE', *, *, #236, .T. ) ;
#223 = LOCAL_TIME ( 11, 55, 5.000000000000000000, #373 ) ;
#224 = CARTESIAN_POINT ( 'NONE',  ( 160.0000000000000000, 0.0000000000000000000, 0.0000000000000000000 ) ) ;
#225 = CARTESIAN_POINT ( 'NONE',  ( 128.0000000000000000, 0.0000000000000000000, 0.0000000000000000000 ) ) ;
#226 = VECTOR ( 'NONE', #141, 1000.000000000000000 ) ;
#227 = AXIS2_PLACEMENT_3D ( 'NONE', #337, #19, #72 ) ;
#228 = ADVANCED_FACE ( 'NONE', ( #211 ), #41, .F. ) ;
#229 = ADVANCED_FACE ( 'NONE', ( #23 ), #55, .F. ) ;
#230 = DIRECTION ( 'NONE',  ( -1.000000000000000000, -0.0000000000000000000, -0.0000000000000000000 ) ) ;
#231 = APPROVAL ( #282, 'UNSPECIFIED' ) ;
#232 = DATE_AND_TIME ( #105, #121 ) ;
#233 = DIRECTION ( 'NONE',  ( -0.7071067811865493500, 8.659560562354909400E-017, -0.7071067811865456900 ) ) ;
#234 = CIRCLE ( 'NONE', #324, 5.249999999999999100 ) ;
#235 = CARTESIAN_POINT ( 'NONE',  ( 127.5125000000000000, 0.0000000000000000000, 0.0000000000000000000 ) ) ;
#236 = EDGE_CURVE ( 'NONE', #349, #48, #262, .T. ) ;
#237 = CARTESIAN_POINT ( 'NONE',  ( 118.0000000000000000, 0.0000000000000000000, 0.0000000000000000000 ) ) ;
#238 = ORIENTED_EDGE ( 'NONE', *, *, #271, .T. ) ;
#239 = VECTOR ( 'NONE', #241, 1000.000000000000100 ) ;
#240 = ORIENTED_EDGE ( 'NONE', *, *, #118, .F. ) ;
#241 = DIRECTION ( 'NONE',  ( -0.9969173337331278500, 0.0000000000000000000, 0.07845909572784511000 ) ) ;
#242 = DIRECTION ( 'NONE',  ( -1.000000000000000000, -0.0000000000000000000, -0.0000000000000000000 ) ) ;
#243 = COORDINATED_UNIVERSAL_TIME_OFFSET ( 8, 0, .AHEAD. ) ;
#244 = ORIENTED_EDGE ( 'NONE', *, *, #108, .T. ) ;
#245 = ORIENTED_EDGE ( 'NONE', *, *, #95, .F. ) ;
#246 = EDGE_CURVE ( 'NONE', #381, #99, #9, .T. ) ;
#247 = CARTESIAN_POINT ( 'NONE',  ( 0.0000000000000000000, 0.0000000000000000000, 0.0000000000000000000 ) ) ;
#248 = VERTEX_POINT ( 'NONE', #44 ) ;
#249 = DIRECTION ( 'NONE',  ( 0.0000000000000000000, 0.0000000000000000000, -1.000000000000000000 ) ) ;
#250 = AXIS2_PLACEMENT_3D ( 'NONE', #312, #16, #294 ) ;
#251 = DATE_TIME_ROLE ( 'creation_date' ) ;
#252 = CC_DESIGN_PERSON_AND_ORGANIZATION_ASSIGNMENT ( #52, #42, ( #88 ) ) ;
#253 = EDGE_CURVE ( 'NONE', #308, #334, #289, .T. ) ;
#254 = CIRCLE ( 'NONE', #328, 4.762500000000001100 ) ;
#255 = VERTEX_POINT ( 'NONE', #327 ) ;
#256 = PERSON_AND_ORGANIZATION ( #60, #321 ) ;
#257 = SHAPE_DEFINITION_REPRESENTATION ( #401, #171 ) ;
#258 = PLANE ( 'NONE',  #49 ) ;
#259 = DIRECTION ( 'NONE',  ( -1.000000000000000000, -0.0000000000000000000, -0.0000000000000000000 ) ) ;
#260 = VECTOR ( 'NONE', #361, 1000.000000000000100 ) ;
#261 = DIRECTION ( 'NONE',  ( 0.0000000000000000000, 0.0000000000000000000, 1.000000000000000000 ) ) ;
#262 = CIRCLE ( 'NONE', #199, 12.69999999999999900 ) ;
#263 = EDGE_LOOP ( 'NONE', ( #34, #375, #184, #25 ) ) ;
#264 = EDGE_CURVE ( 'NONE', #255, #164, #147, .T. ) ;
#265 = VECTOR ( 'NONE', #181, 1000.000000000000000 ) ;
#266 = CARTESIAN_POINT ( 'NONE',  ( 0.0000000000000000000, 0.0000000000000000000, 0.0000000000000000000 ) ) ;
#267 = APPROVAL_PERSON_ORGANIZATION ( #256, #190, #403 ) ;
#268 = DIRECTION ( 'NONE',  ( 0.0000000000000000000, 0.0000000000000000000, 1.000000000000000000 ) ) ;
#269 = APPLICATION_CONTEXT ( 'configuration controlled 3d designs of mechanical parts and assemblies' ) ;
#270 = VERTEX_POINT ( 'NONE', #272 ) ;
#271 = EDGE_CURVE ( 'NONE', #99, #270, #315, .T. ) ;
#272 = CARTESIAN_POINT ( 'NONE',  ( 128.0000000000000000, 6.130888038231438600E-016, -4.762500000000001100 ) ) ;
#273 = DIRECTION ( 'NONE',  ( 0.0000000000000000000, 0.0000000000000000000, 1.000000000000000000 ) ) ;
#274 = CARTESIAN_POINT ( 'NONE',  ( 160.0000000000000000, 0.0000000000000000000, 0.0000000000000000000 ) ) ;
#275 = AXIS2_PLACEMENT_3D ( 'NONE', #363, #342, #117 ) ;
#276 = VECTOR ( 'NONE', #15, 1000.000000000000100 ) ;
#277 = EDGE_CURVE ( 'NONE', #48, #349, #198, .T. ) ;
#278 = PERSON_AND_ORGANIZATION ( #60, #321 ) ;
#279 = LINE ( 'NONE', #89, #226 ) ;
#280 = ORIENTED_EDGE ( 'NONE', *, *, #378, .T. ) ;
#281 = DIRECTION ( 'NONE',  ( -1.000000000000000000, -0.0000000000000000000, -0.0000000000000000000 ) ) ;
#282 = APPROVAL_STATUS ( 'not_yet_approved' ) ;
#283 = CYLINDRICAL_SURFACE ( 'NONE', #74, 12.69999999999999900 ) ;
#284 = EDGE_LOOP ( 'NONE', ( #240, #37, #29, #158 ) ) ;
#285 = COORDINATED_UNIVERSAL_TIME_OFFSET ( 8, 0, .AHEAD. ) ;
#286 = EDGE_LOOP ( 'NONE', ( #65, #238, #57, #245 ) ) ;
#287 = ADVANCED_FACE ( 'NONE', ( #356 ), #258, .T. ) ;
#288 = AXIS2_PLACEMENT_3D ( 'NONE', #224, #355, #335 ) ;
#289 = CIRCLE ( 'NONE', #288, 10.00000000000000000 ) ;
#290 = ORIENTED_EDGE ( 'NONE', *, *, #142, .F. ) ;
#291 = ADVANCED_FACE ( 'NONE', ( #129 ), #297, .T. ) ;
#292 = DIRECTION ( 'NONE',  ( -0.0000000000000000000, 0.0000000000000000000, 1.000000000000000000 ) ) ;
#293 = APPROVAL_DATE_TIME ( #232, #190 ) ;
#294 = DIRECTION ( 'NONE',  ( 1.000000000000000000, 0.0000000000000000000, 0.0000000000000000000 ) ) ;
#295 = ADVANCED_FACE ( 'NONE', ( #310 ), #145, .F. ) ;
#296 = CARTESIAN_POINT ( 'NONE',  ( 127.5125000000000000, 0.0000000000000000000, 0.0000000000000000000 ) ) ;
#297 = CYLINDRICAL_SURFACE ( 'NONE', #275, 12.69999999999999900 ) ;
#298 = VERTEX_POINT ( 'NONE', #185 ) ;
#299 = ORIENTED_EDGE ( 'NONE', *, *, #318, .T. ) ;
#300 = DIRECTION ( 'NONE',  ( -1.000000000000000000, -0.0000000000000000000, -0.0000000000000000000 ) ) ;
#301 = CARTESIAN_POINT ( 'NONE',  ( -3.888253587292845100E-016, 0.0000000000000000000, 12.69999999999999900 ) ) ;
#302 = FACE_OUTER_BOUND ( 'NONE', #357, .T. ) ;
#303 = DIRECTION ( 'NONE',  ( 0.0000000000000000000, 0.0000000000000000000, 1.000000000000000000 ) ) ;
#304 = ORIENTED_EDGE ( 'NONE', *, *, #236, .F. ) ;
#305 = AXIS2_PLACEMENT_3D ( 'NONE', #22, #70, #93 ) ;
#306 = CARTESIAN_POINT ( 'NONE',  ( 0.0000000000000000000, 0.0000000000000000000, 12.69999999999999900 ) ) ;
#307 = DIRECTION ( 'NONE',  ( 0.0000000000000000000, 0.0000000000000000000, 1.000000000000000000 ) ) ;
#308 = VERTEX_POINT ( 'NONE', #176 ) ;
#309 = AXIS2_PLACEMENT_3D ( 'NONE', #320, #196, #140 ) ;
#310 = FACE_OUTER_BOUND ( 'NONE', #263, .T. ) ;
#311 = EDGE_LOOP ( 'NONE', ( #12, #111, #24, #341 ) ) ;
#312 = CARTESIAN_POINT ( 'NONE',  ( 0.0000000000000000000, 0.0000000000000000000, 0.0000000000000000000 ) ) ;
#313 = AXIS2_PLACEMENT_3D ( 'NONE', #235, #330, #261 ) ;
#314 = CALENDAR_DATE ( 2017, 19, 5 ) ;
#315 = LINE ( 'NONE', #362, #182 ) ;
#316 = ORIENTED_EDGE ( 'NONE', *, *, #253, .F. ) ;
#317 = EDGE_CURVE ( 'NONE', #123, #164, #364, .T. ) ;
#318 = EDGE_CURVE ( 'NONE', #334, #349, #103, .T. ) ;
#319 = LINE ( 'NONE', #115, #177 ) ;
#320 = CARTESIAN_POINT ( 'NONE',  ( 0.0000000000000000000, 0.0000000000000000000, 0.0000000000000000000 ) ) ;
#321 = ORGANIZATION ( 'UNSPECIFIED', 'UNSPECIFIED', '' ) ;
#322 = VERTEX_POINT ( 'NONE', #27 ) ;
#323 = DIRECTION ( 'NONE',  ( -1.000000000000000000, -0.0000000000000000000, -0.0000000000000000000 ) ) ;
#324 = AXIS2_PLACEMENT_3D ( 'NONE', #237, #230, #400 ) ;
#325 = PERSON_AND_ORGANIZATION ( #60, #321 ) ;
#326 = EDGE_LOOP ( 'NONE', ( #163, #331 ) ) ;
#327 = CARTESIAN_POINT ( 'NONE',  ( 127.5125000000000000, 6.429395695523605100E-016, -5.250000000000000000 ) ) ;
#328 = AXIS2_PLACEMENT_3D ( 'NONE', #84, #242, #81 ) ;
#329 = CARTESIAN_POINT ( 'NONE',  ( 125.6932472123283900, 0.0000000000000000000, 12.69999999999999900 ) ) ;
#330 = DIRECTION ( 'NONE',  ( -1.000000000000000000, -0.0000000000000000000, -0.0000000000000000000 ) ) ;
#331 = ORIENTED_EDGE ( 'NONE', *, *, #113, .T. ) ;
#332 = AXIS2_PLACEMENT_3D ( 'NONE', #365, #300, #204 ) ;
#333 = CIRCLE ( 'NONE', #394, 5.249999999999999100 ) ;
#334 = VERTEX_POINT ( 'NONE', #396 ) ;
#335 = DIRECTION ( 'NONE',  ( 0.0000000000000000000, 0.0000000000000000000, 1.000000000000000000 ) ) ;
#336 = DIRECTION ( 'NONE',  ( -1.000000000000000000, -0.0000000000000000000, -0.0000000000000000000 ) ) ;
#337 = CARTESIAN_POINT ( 'NONE',  ( 0.0000000000000000000, 0.0000000000000000000, 0.0000000000000000000 ) ) ;
#338 = APPROVAL ( #58, 'UNSPECIFIED' ) ;
#339 = CC_DESIGN_APPROVAL ( #231, ( #88 ) ) ;
#340 = ORIENTED_EDGE ( 'NONE', *, *, #317, .T. ) ;
#341 = ORIENTED_EDGE ( 'NONE', *, *, #220, .T. ) ;
#342 = DIRECTION ( 'NONE',  ( -1.000000000000000000, -0.0000000000000000000, -0.0000000000000000000 ) ) ;
#343 = CONICAL_SURFACE ( 'NONE', #188, 10.00000000000000000, 0.07853981633974500800 ) ;
#344 =( NAMED_UNIT ( * ) PLANE_ANGLE_UNIT ( ) SI_UNIT ( $, .RADIAN. ) );
#345 = EDGE_LOOP ( 'NONE', ( #33, #79 ) ) ;
#346 = AXIS2_PLACEMENT_3D ( 'NONE', #225, #259, #137 ) ;
#347 = PERSON_AND_ORGANIZATION ( #60, #321 ) ;
#348 = EDGE_CURVE ( 'NONE', #334, #308, #64, .T. ) ;
#349 = VERTEX_POINT ( 'NONE', #329 ) ;
#350 = EDGE_LOOP ( 'NONE', ( #222, #170, #157, #290 ) ) ;
#351 = DIRECTION ( 'NONE',  ( 0.0000000000000000000, 0.0000000000000000000, 1.000000000000000000 ) ) ;
#352 = ADVANCED_FACE ( 'NONE', ( #17 ), #100, .F. ) ;
#353 = CARTESIAN_POINT ( 'NONE',  ( 160.0000000000000000, 5.832380380939270100E-016, -4.762500000000000200 ) ) ;
#354 = CC_DESIGN_PERSON_AND_ORGANIZATION_ASSIGNMENT ( #21, #83, ( #210 ) ) ;
#355 = DIRECTION ( 'NONE',  ( -1.000000000000000000, -0.0000000000000000000, -0.0000000000000000000 ) ) ;
#356 = FACE_OUTER_BOUND ( 'NONE', #345, .T. ) ;
#357 = EDGE_LOOP ( 'NONE', ( #216, #92, #304, #212 ) ) ;
#358 = CARTESIAN_POINT ( 'NONE',  ( 160.0000000000000000, 1.224646799147353300E-015, -10.00000000000000000 ) ) ;
#359 = ADVANCED_FACE ( 'NONE', ( #302 ), #343, .T. ) ;
#360 = LINE ( 'NONE', #197, #150 ) ;
#361 = DIRECTION ( 'NONE',  ( -0.7071067811865493500, 0.0000000000000000000, 0.7071067811865456900 ) ) ;
#362 = CARTESIAN_POINT ( 'NONE',  ( 0.0000000000000000000, 5.832380380939271100E-016, -4.762500000000001100 ) ) ;
#363 = CARTESIAN_POINT ( 'NONE',  ( 0.0000000000000000000, 0.0000000000000000000, 0.0000000000000000000 ) ) ;
#364 = LINE ( 'NONE', #96, #260 ) ;
#365 = CARTESIAN_POINT ( 'NONE',  ( -3.888253587292845100E-016, 0.0000000000000000000, 0.0000000000000000000 ) ) ;
#366 = CARTESIAN_POINT ( 'NONE',  ( 128.0000000000000000, 0.0000000000000000000, 0.0000000000000000000 ) ) ;
#367 = PRODUCT_DEFINITION ( 'UNKNOWN', '', #88, #40 ) ;
#368 = CALENDAR_DATE ( 2017, 19, 5 ) ;
#369 = CARTESIAN_POINT ( 'NONE',  ( -1.944126793646422500E-016, 12.69999999999999900, 0.0000000000000000000 ) ) ;
#370 = CIRCLE ( 'NONE', #195, 4.762500000000001100 ) ;
#371 = ORIENTED_EDGE ( 'NONE', *, *, #246, .T. ) ;
#372 = CARTESIAN_POINT ( 'NONE',  ( 160.0000000000000000, 0.0000000000000000000, 0.0000000000000000000 ) ) ;
#373 = COORDINATED_UNIVERSAL_TIME_OFFSET ( 8, 0, .AHEAD. ) ;
#374 = LINE ( 'NONE', #358, #276 ) ;
#375 = ORIENTED_EDGE ( 'NONE', *, *, #246, .F. ) ;
#376 = ORIENTED_EDGE ( 'NONE', *, *, #90, .F. ) ;
#377 = DIRECTION ( 'NONE',  ( -1.000000000000000000, -0.0000000000000000000, -0.0000000000000000000 ) ) ;
#378 = EDGE_CURVE ( 'NONE', #322, #298, #333, .T. ) ;
#379 = DIRECTION ( 'NONE',  ( -1.000000000000000000, -0.0000000000000000000, -0.0000000000000000000 ) ) ;
#380 = CYLINDRICAL_SURFACE ( 'NONE', #205, 5.249999999999999100 ) ;
#381 = VERTEX_POINT ( 'NONE', #31 ) ;
#382 = DIRECTION ( 'NONE',  ( -1.000000000000000000, -0.0000000000000000000, -0.0000000000000000000 ) ) ;
#383 = DATE_AND_TIME ( #368, #193 ) ;
#384 = DIRECTION ( 'NONE',  ( 0.0000000000000000000, 0.0000000000000000000, 1.000000000000000000 ) ) ;
#385 = MANIFOLD_SOLID_BREP ( '°£®Æ-±ÛÂà1', #98 ) ;
#386 = AXIS2_PLACEMENT_3D ( 'NONE', #167, #207, #351 ) ;
#387 = DIRECTION ( 'NONE',  ( 0.0000000000000000000, 0.0000000000000000000, 1.000000000000000000 ) ) ;
#388 = ORIENTED_EDGE ( 'NONE', *, *, #142, .T. ) ;
#389 = DIRECTION ( 'NONE',  ( -1.000000000000000000, -0.0000000000000000000, -0.0000000000000000000 ) ) ;
#390 = AXIS2_PLACEMENT_3D ( 'NONE', #296, #112, #307 ) ;
#391 = LOCAL_TIME ( 11, 55, 5.000000000000000000, #285 ) ;
#392 = CARTESIAN_POINT ( 'NONE',  ( 160.0000000000000000, 0.0000000000000000000, 10.00000000000000000 ) ) ;
#393 = FACE_OUTER_BOUND ( 'NONE', #119, .T. ) ;
#394 = AXIS2_PLACEMENT_3D ( 'NONE', #124, #281, #153 ) ;
#395 = CC_DESIGN_APPROVAL ( #190, ( #210 ) ) ;
#396 = CARTESIAN_POINT ( 'NONE',  ( 160.0000000000000000, 0.0000000000000000000, 10.00000000000000000 ) ) ;
#397 = CALENDAR_DATE ( 2017, 19, 5 ) ;
#398 = CARTESIAN_POINT ( 'NONE',  ( 125.6932472123283900, 1.555301434917138400E-015, -12.69999999999999900 ) ) ;
#399 = CC_DESIGN_PERSON_AND_ORGANIZATION_ASSIGNMENT ( #278, #63, ( #88 ) ) ;
#400 = DIRECTION ( 'NONE',  ( 0.0000000000000000000, 0.0000000000000000000, 1.000000000000000000 ) ) ;
#401 = PRODUCT_DEFINITION_SHAPE ( 'NONE', 'NONE',  #367 ) ;
#402 = CARTESIAN_POINT ( 'NONE',  ( 118.0000000000000000, 5.249999999999999100, 0.0000000000000000000 ) ) ;
#403 = APPROVAL_ROLE ( '' ) ;
#404 = AXIS2_PLACEMENT_3D ( 'NONE', #172, #51, #303 ) ;
#405 = ORIENTED_EDGE ( 'NONE', *, *, #173, .F. ) ;
ENDSEC;
END-ISO-10303-21;
