ISO-10303-21;
HEADER;
FILE_DESCRIPTION (( 'STEP AP203' ),
    '1' );
FILE_NAME ('STP-86080.STEP',
    '2017-03-24T06:09:06',
    ( '' ),
    ( '' ),
    'SwSTEP 2.0',
    'SolidWorks 2015',
    '' );
FILE_SCHEMA (( 'CONFIG_CONTROL_DESIGN' ));
ENDSEC;

DATA;
#1 = LOCAL_TIME ( 14, 9, 6.000000000000000000, #358 ) ;
#2 = DIRECTION ( 'NONE',  ( -1.000000000000000000, -0.0000000000000000000, -0.0000000000000000000 ) ) ;
#3 = CONICAL_SURFACE ( 'NONE', #248, 7.000000000000000000, 0.07853981633974500800 ) ;
#4 = PRODUCT ( 'STP-86080', 'STP-86080', '', ( #338 ) ) ;
#5 = DIRECTION ( 'NONE',  ( 0.0000000000000000000, 0.0000000000000000000, 1.000000000000000000 ) ) ;
#6 = LINE ( 'NONE', #184, #354 ) ;
#7 = ORIENTED_EDGE ( 'NONE', *, *, #247, .F. ) ;
#8 = ORIENTED_EDGE ( 'NONE', *, *, #237, .T. ) ;
#9 = CALENDAR_DATE ( 2017, 24, 3 ) ;
#10 = APPLICATION_CONTEXT ( 'configuration controlled 3d designs of mechanical parts and assemblies' ) ;
#11 = PERSON_AND_ORGANIZATION ( #261, #288 ) ;
#12 = CARTESIAN_POINT ( 'NONE',  ( -1.944126793646423500E-016, 1.166476076187854000E-015, -9.525000000000000400 ) ) ;
#13 = CARTESIAN_POINT ( 'NONE',  ( 160.0000000000000000, 0.0000000000000000000, 7.000000000000000000 ) ) ;
#14 = AXIS2_PLACEMENT_3D ( 'NONE', #187, #122, #370 ) ;
#15 = DATE_AND_TIME ( #28, #349 ) ;
#16 = DIRECTION ( 'NONE',  ( 0.0000000000000000000, 0.0000000000000000000, 1.000000000000000000 ) ) ;
#17 = ADVANCED_FACE ( 'NONE', ( #131, #210 ), #403, .F. ) ;
#18 = PERSON_AND_ORGANIZATION ( #261, #288 ) ;
#19 = AXIS2_PLACEMENT_3D ( 'NONE', #77, #393, #30 ) ;
#20 = LOCAL_TIME ( 14, 9, 6.000000000000000000, #37 ) ;
#21 = DATE_AND_TIME ( #344, #339 ) ;
#22 = AXIS2_PLACEMENT_3D ( 'NONE', #285, #274, #100 ) ;
#23 = DIRECTION ( 'NONE',  ( -1.000000000000000000, -0.0000000000000000000, -0.0000000000000000000 ) ) ;
#24 = CALENDAR_DATE ( 2017, 24, 3 ) ;
#25 = DIRECTION ( 'NONE',  ( -1.000000000000000000, -0.0000000000000000000, -0.0000000000000000000 ) ) ;
#26 = EDGE_CURVE ( 'NONE', #133, #189, #115, .T. ) ;
#27 = DIRECTION ( 'NONE',  ( 0.0000000000000000000, 0.0000000000000000000, 1.000000000000000000 ) ) ;
#28 = CALENDAR_DATE ( 2017, 24, 3 ) ;
#29 = DIRECTION ( 'NONE',  ( -1.000000000000000000, -0.0000000000000000000, -0.0000000000000000000 ) ) ;
#30 = DIRECTION ( 'NONE',  ( 0.0000000000000000000, 0.0000000000000000000, 1.000000000000000000 ) ) ;
#31 = AXIS2_PLACEMENT_3D ( 'NONE', #148, #273, #59 ) ;
#32 = FACE_OUTER_BOUND ( 'NONE', #398, .T. ) ;
#33 = DIRECTION ( 'NONE',  ( 0.0000000000000000000, 0.0000000000000000000, -1.000000000000000000 ) ) ;
#34 = EDGE_CURVE ( 'NONE', #76, #97, #162, .T. ) ;
#35 = CARTESIAN_POINT ( 'NONE',  ( 127.9168330411589400, 0.0000000000000000000, 0.0000000000000000000 ) ) ;
#36 = APPROVAL_STATUS ( 'not_yet_approved' ) ;
#37 = COORDINATED_UNIVERSAL_TIME_OFFSET ( 8, 0, .AHEAD. ) ;
#38 = EDGE_LOOP ( 'NONE', ( #311, #42, #70, #7 ) ) ;
#39 = VECTOR ( 'NONE', #394, 1000.000000000000100 ) ;
#40 = PERSON_AND_ORGANIZATION_ROLE ( 'design_owner' ) ;
#41 = AXIS2_PLACEMENT_3D ( 'NONE', #119, #392, #309 ) ;
#42 = ORIENTED_EDGE ( 'NONE', *, *, #266, .T. ) ;
#43 = MANIFOLD_SOLID_BREP ( '°£®Æ-±ÛÂà1', #216 ) ;
#44 = ORIENTED_EDGE ( 'NONE', *, *, #327, .F. ) ;
#45 = DIRECTION ( 'NONE',  ( 0.0000000000000000000, 0.0000000000000000000, 1.000000000000000000 ) ) ;
#46 = APPROVAL_ROLE ( '' ) ;
#47 = ORIENTED_EDGE ( 'NONE', *, *, #114, .T. ) ;
#48 = CARTESIAN_POINT ( 'NONE',  ( 0.0000000000000000000, 0.0000000000000000000, 4.762500000000001100 ) ) ;
#49 = CC_DESIGN_PERSON_AND_ORGANIZATION_ASSIGNMENT ( #298, #40, ( #4 ) ) ;
#50 = DIRECTION ( 'NONE',  ( 0.0000000000000000000, 0.0000000000000000000, 1.000000000000000000 ) ) ;
#51 = CIRCLE ( 'NONE', #157, 4.762500000000000200 ) ;
#52 = EDGE_CURVE ( 'NONE', #169, #176, #402, .T. ) ;
#53 = ADVANCED_FACE ( 'NONE', ( #231 ), #369, .T. ) ;
#54 = ORIENTED_EDGE ( 'NONE', *, *, #378, .T. ) ;
#55 = ORIENTED_EDGE ( 'NONE', *, *, #375, .F. ) ;
#56 = AXIS2_PLACEMENT_3D ( 'NONE', #206, #376, #356 ) ;
#57 = ORIENTED_EDGE ( 'NONE', *, *, #34, .T. ) ;
#58 = CARTESIAN_POINT ( 'NONE',  ( 127.5125000000000000, 0.0000000000000000000, 0.0000000000000000000 ) ) ;
#59 = DIRECTION ( 'NONE',  ( 0.0000000000000000000, 0.0000000000000000000, 1.000000000000000000 ) ) ;
#60 = AXIS2_PLACEMENT_3D ( 'NONE', #335, #269, #45 ) ;
#61 = EDGE_LOOP ( 'NONE', ( #224, #68, #399, #291 ) ) ;
#62 = ORIENTED_EDGE ( 'NONE', *, *, #129, .T. ) ;
#63 = EDGE_LOOP ( 'NONE', ( #218, #212, #371, #102 ) ) ;
#64 = PRODUCT_DEFINITION ( 'UNKNOWN', '', #173, #372 ) ;
#65 = DIRECTION ( 'NONE',  ( -1.000000000000000000, -0.0000000000000000000, -0.0000000000000000000 ) ) ;
#66 = EDGE_CURVE ( 'NONE', #133, #87, #235, .T. ) ;
#67 = CARTESIAN_POINT ( 'NONE',  ( 128.0000000000000000, 0.0000000000000000000, 0.0000000000000000000 ) ) ;
#68 = ORIENTED_EDGE ( 'NONE', *, *, #375, .T. ) ;
#69 = DATE_TIME_ROLE ( 'creation_date' ) ;
#70 = ORIENTED_EDGE ( 'NONE', *, *, #34, .F. ) ;
#71 =( NAMED_UNIT ( * ) SI_UNIT ( $, .STERADIAN. ) SOLID_ANGLE_UNIT ( ) );
#72 = DIRECTION ( 'NONE',  ( -1.000000000000000000, -0.0000000000000000000, -0.0000000000000000000 ) ) ;
#73 = AXIS2_PLACEMENT_3D ( 'NONE', #96, #405, #5 ) ;
#74 = VERTEX_POINT ( 'NONE', #364 ) ;
#75 = CIRCLE ( 'NONE', #31, 7.000000000000000000 ) ;
#76 = VERTEX_POINT ( 'NONE', #278 ) ;
#77 = CARTESIAN_POINT ( 'NONE',  ( 160.0000000000000000, 0.0000000000000000000, 0.0000000000000000000 ) ) ;
#78 = DIRECTION ( 'NONE',  ( -1.000000000000000000, -0.0000000000000000000, -0.0000000000000000000 ) ) ;
#79 = DIRECTION ( 'NONE',  ( -0.7071067811865493500, 8.659560562354909400E-017, -0.7071067811865456900 ) ) ;
#80 = ADVANCED_FACE ( 'NONE', ( #281 ), #140, .F. ) ;
#81 = DIRECTION ( 'NONE',  ( -1.000000000000000000, -0.0000000000000000000, -0.0000000000000000000 ) ) ;
#82 = VECTOR ( 'NONE', #299, 1000.000000000000000 ) ;
#83 = EDGE_LOOP ( 'NONE', ( #44, #127, #252, #111 ) ) ;
#84 = AXIS2_PLACEMENT_3D ( 'NONE', #108, #168, #113 ) ;
#85 = ORIENTED_EDGE ( 'NONE', *, *, #239, .F. ) ;
#86 = ORIENTED_EDGE ( 'NONE', *, *, #153, .F. ) ;
#87 = VERTEX_POINT ( 'NONE', #310 ) ;
#88 = EDGE_LOOP ( 'NONE', ( #57, #220 ) ) ;
#89 = APPROVAL ( #36, 'UNSPECIFIED' ) ;
#90 = DIRECTION ( 'NONE',  ( 0.0000000000000000000, 0.0000000000000000000, 1.000000000000000000 ) ) ;
#91 = EDGE_CURVE ( 'NONE', #134, #176, #180, .T. ) ;
#92 = DIRECTION ( 'NONE',  ( 0.0000000000000000000, 0.0000000000000000000, 1.000000000000000000 ) ) ;
#93 = CIRCLE ( 'NONE', #286, 4.762500000000001100 ) ;
#94 = DIRECTION ( 'NONE',  ( -1.000000000000000000, -0.0000000000000000000, -0.0000000000000000000 ) ) ;
#95 = DIRECTION ( 'NONE',  ( 0.0000000000000000000, 0.0000000000000000000, 1.000000000000000000 ) ) ;
#96 = CARTESIAN_POINT ( 'NONE',  ( 118.0000000000000000, 0.0000000000000000000, 0.0000000000000000000 ) ) ;
#97 = VERTEX_POINT ( 'NONE', #12 ) ;
#98 = AXIS2_PLACEMENT_3D ( 'NONE', #104, #250, #315 ) ;
#99 = VERTEX_POINT ( 'NONE', #151 ) ;
#100 = DIRECTION ( 'NONE',  ( 1.000000000000000000, 0.0000000000000000000, 0.0000000000000000000 ) ) ;
#101 = VERTEX_POINT ( 'NONE', #295 ) ;
#102 = ORIENTED_EDGE ( 'NONE', *, *, #283, .F. ) ;
#103 = CARTESIAN_POINT ( 'NONE',  ( 128.0000000000000000, 0.0000000000000000000, 0.0000000000000000000 ) ) ;
#104 = CARTESIAN_POINT ( 'NONE',  ( 0.0000000000000000000, 0.0000000000000000000, 0.0000000000000000000 ) ) ;
#105 = ADVANCED_FACE ( 'NONE', ( #214 ), #139, .F. ) ;
#106 = ORIENTED_EDGE ( 'NONE', *, *, #327, .T. ) ;
#107 = CARTESIAN_POINT ( 'NONE',  ( 127.9168330411589400, 0.0000000000000000000, 9.525000000000000400 ) ) ;
#108 = CARTESIAN_POINT ( 'NONE',  ( 127.9168330411589400, 0.0000000000000000000, 0.0000000000000000000 ) ) ;
#109 = CC_DESIGN_APPROVAL ( #89, ( #64 ) ) ;
#110 = LINE ( 'NONE', #232, #379 ) ;
#111 = ORIENTED_EDGE ( 'NONE', *, *, #387, .T. ) ;
#112 = ADVANCED_FACE ( 'NONE', ( #179 ), #158, .T. ) ;
#113 = DIRECTION ( 'NONE',  ( 0.0000000000000000000, 0.0000000000000000000, 1.000000000000000000 ) ) ;
#114 = EDGE_CURVE ( 'NONE', #87, #259, #141, .T. ) ;
#115 = CIRCLE ( 'NONE', #19, 4.762500000000000200 ) ;
#116 = ORIENTED_EDGE ( 'NONE', *, *, #226, .F. ) ;
#117 = FACE_OUTER_BOUND ( 'NONE', #120, .T. ) ;
#118 = AXIS2_PLACEMENT_3D ( 'NONE', #183, #25, #209 ) ;
#119 = CARTESIAN_POINT ( 'NONE',  ( 160.0000000000000000, 7.000000000000000000, 0.0000000000000000000 ) ) ;
#120 = EDGE_LOOP ( 'NONE', ( #191, #193, #287, #155 ) ) ;
#121 = DIRECTION ( 'NONE',  ( -1.000000000000000000, -0.0000000000000000000, -0.0000000000000000000 ) ) ;
#122 = DIRECTION ( 'NONE',  ( -1.000000000000000000, -0.0000000000000000000, -0.0000000000000000000 ) ) ;
#123 = DIRECTION ( 'NONE',  ( -1.000000000000000000, -0.0000000000000000000, -0.0000000000000000000 ) ) ;
#124 = VECTOR ( 'NONE', #188, 1000.000000000000000 ) ;
#125 = CARTESIAN_POINT ( 'NONE',  ( 160.0000000000000000, 0.0000000000000000000, 0.0000000000000000000 ) ) ;
#126 = CC_DESIGN_PERSON_AND_ORGANIZATION_ASSIGNMENT ( #318, #289, ( #64 ) ) ;
#127 = ORIENTED_EDGE ( 'NONE', *, *, #129, .F. ) ;
#128 = VECTOR ( 'NONE', #170, 1000.000000000000100 ) ;
#129 = EDGE_CURVE ( 'NONE', #259, #322, #165, .T. ) ;
#130 = LINE ( 'NONE', #297, #262 ) ;
#131 = FACE_BOUND ( 'NONE', #230, .T. ) ;
#132 = CARTESIAN_POINT ( 'NONE',  ( 118.0000000000000000, 0.0000000000000000000, 0.0000000000000000000 ) ) ;
#133 = VERTEX_POINT ( 'NONE', #341 ) ;
#134 = VERTEX_POINT ( 'NONE', #268 ) ;
#135 = AXIS2_PLACEMENT_3D ( 'NONE', #67, #241, #16 ) ;
#136 = FACE_OUTER_BOUND ( 'NONE', #229, .T. ) ;
#137 = PLANE ( 'NONE',  #56 ) ;
#138 = CIRCLE ( 'NONE', #73, 5.249999999999999100 ) ;
#139 = CYLINDRICAL_SURFACE ( 'NONE', #346, 4.762500000000001100 ) ;
#140 = CONICAL_SURFACE ( 'NONE', #215, 4.762500000000001100, 0.7853981633974456100 ) ;
#141 = LINE ( 'NONE', #381, #128 ) ;
#142 = CIRCLE ( 'NONE', #366, 5.250000000000000000 ) ;
#143 = FACE_OUTER_BOUND ( 'NONE', #88, .T. ) ;
#144 = VECTOR ( 'NONE', #79, 1000.000000000000100 ) ;
#145 = ADVANCED_FACE ( 'NONE', ( #147 ), #258, .F. ) ;
#146 = ORIENTED_EDGE ( 'NONE', *, *, #378, .F. ) ;
#147 = FACE_OUTER_BOUND ( 'NONE', #83, .T. ) ;
#148 = CARTESIAN_POINT ( 'NONE',  ( 160.0000000000000000, 0.0000000000000000000, 0.0000000000000000000 ) ) ;
#149 = VERTEX_POINT ( 'NONE', #13 ) ;
#150 = CC_DESIGN_DATE_AND_TIME_ASSIGNMENT ( #326, #69, ( #64 ) ) ;
#151 = CARTESIAN_POINT ( 'NONE',  ( 128.0000000000000000, 6.130888038231438600E-016, -4.762500000000001100 ) ) ;
#152 = CARTESIAN_POINT ( 'NONE',  ( 128.0000000000000000, 5.832380380939271100E-016, -4.762500000000001100 ) ) ;
#153 = EDGE_CURVE ( 'NONE', #99, #322, #397, .T. ) ;
#154 = DIRECTION ( 'NONE',  ( 1.000000000000000000, 0.0000000000000000000, 0.0000000000000000000 ) ) ;
#155 = ORIENTED_EDGE ( 'NONE', *, *, #114, .F. ) ;
#156 = CIRCLE ( 'NONE', #334, 9.525000000000000400 ) ;
#157 = AXIS2_PLACEMENT_3D ( 'NONE', #227, #382, #27 ) ;
#158 = CONICAL_SURFACE ( 'NONE', #314, 7.000000000000000000, 0.07853981633974500800 ) ;
#159 = CYLINDRICAL_SURFACE ( 'NONE', #14, 9.525000000000000400 ) ;
#160 = ORIENTED_EDGE ( 'NONE', *, *, #387, .F. ) ;
#161 = APPLICATION_CONTEXT ( 'configuration controlled 3d designs of mechanical parts and assemblies' ) ;
#162 = CIRCLE ( 'NONE', #60, 9.525000000000000400 ) ;
#163 = CARTESIAN_POINT ( 'NONE',  ( 160.0000000000000000, 0.0000000000000000000, 0.0000000000000000000 ) ) ;
#164 = LINE ( 'NONE', #223, #124 ) ;
#165 = CIRCLE ( 'NONE', #292, 5.250000000000000000 ) ;
#166 = ADVANCED_BREP_SHAPE_REPRESENTATION ( 'STP-86080', ( #43, #22 ), #359 ) ;
#167 = APPLICATION_PROTOCOL_DEFINITION ( 'international standard', 'config_control_design', 1994, #10 ) ;
#168 = DIRECTION ( 'NONE',  ( -1.000000000000000000, -0.0000000000000000000, -0.0000000000000000000 ) ) ;
#169 = VERTEX_POINT ( 'NONE', #107 ) ;
#170 = DIRECTION ( 'NONE',  ( -0.7071067811865493500, 0.0000000000000000000, 0.7071067811865456900 ) ) ;
#171 = PERSON_AND_ORGANIZATION_ROLE ( 'design_supplier' ) ;
#172 = CARTESIAN_POINT ( 'NONE',  ( 160.0000000000000000, 5.832380380939270100E-016, -4.762500000000000200 ) ) ;
#173 = PRODUCT_DEFINITION_FORMATION_WITH_SPECIFIED_SOURCE ( 'ANY', '', #4, .NOT_KNOWN. ) ;
#174 = ADVANCED_FACE ( 'NONE', ( #196 ), #159, .T. ) ;
#175 = DIRECTION ( 'NONE',  ( 0.0000000000000000000, 0.0000000000000000000, 1.000000000000000000 ) ) ;
#176 = VERTEX_POINT ( 'NONE', #256 ) ;
#177 = EDGE_CURVE ( 'NONE', #322, #259, #142, .T. ) ;
#178 = ADVANCED_FACE ( 'NONE', ( #143 ), #137, .F. ) ;
#179 = FACE_OUTER_BOUND ( 'NONE', #208, .T. ) ;
#180 = LINE ( 'NONE', #257, #293 ) ;
#181 = AXIS2_PLACEMENT_3D ( 'NONE', #185, #253, #350 ) ;
#182 = CIRCLE ( 'NONE', #118, 9.525000000000000400 ) ;
#183 = CARTESIAN_POINT ( 'NONE',  ( -1.944126793646423500E-016, 0.0000000000000000000, 0.0000000000000000000 ) ) ;
#184 = CARTESIAN_POINT ( 'NONE',  ( 0.0000000000000000000, 1.166476076187854000E-015, -9.525000000000000400 ) ) ;
#185 = CARTESIAN_POINT ( 'NONE',  ( 0.0000000000000000000, 0.0000000000000000000, 0.0000000000000000000 ) ) ;
#186 = EDGE_LOOP ( 'NONE', ( #85, #55 ) ) ;
#187 = CARTESIAN_POINT ( 'NONE',  ( 0.0000000000000000000, 0.0000000000000000000, 0.0000000000000000000 ) ) ;
#188 = DIRECTION ( 'NONE',  ( -1.000000000000000000, -0.0000000000000000000, -0.0000000000000000000 ) ) ;
#189 = VERTEX_POINT ( 'NONE', #172 ) ;
#190 = DIRECTION ( 'NONE',  ( -1.000000000000000000, -0.0000000000000000000, -0.0000000000000000000 ) ) ;
#191 = ORIENTED_EDGE ( 'NONE', *, *, #355, .F. ) ;
#192 = DIRECTION ( 'NONE',  ( -1.000000000000000000, -0.0000000000000000000, -0.0000000000000000000 ) ) ;
#193 = ORIENTED_EDGE ( 'NONE', *, *, #153, .T. ) ;
#194 = DIRECTION ( 'NONE',  ( -1.000000000000000000, -0.0000000000000000000, -0.0000000000000000000 ) ) ;
#195 = APPROVAL ( #233, 'UNSPECIFIED' ) ;
#196 = FACE_OUTER_BOUND ( 'NONE', #38, .T. ) ;
#197 = CIRCLE ( 'NONE', #135, 4.762500000000001100 ) ;
#198 = EDGE_LOOP ( 'NONE', ( #272, #296, #316, #265 ) ) ;
#199 = EDGE_CURVE ( 'NONE', #149, #169, #228, .T. ) ;
#200 = DIRECTION ( 'NONE',  ( 0.0000000000000000000, 0.0000000000000000000, 1.000000000000000000 ) ) ;
#201 = FACE_OUTER_BOUND ( 'NONE', #63, .T. ) ;
#202 = ORIENTED_EDGE ( 'NONE', *, *, #91, .T. ) ;
#203 = ORIENTED_EDGE ( 'NONE', *, *, #199, .F. ) ;
#204 = CARTESIAN_POINT ( 'NONE',  ( 160.0000000000000000, 0.0000000000000000000, 0.0000000000000000000 ) ) ;
#205 = AXIS2_PLACEMENT_3D ( 'NONE', #383, #78, #386 ) ;
#206 = CARTESIAN_POINT ( 'NONE',  ( -9.720633968232117700E-017, 9.525000000000000400, 0.0000000000000000000 ) ) ;
#207 = ORIENTED_EDGE ( 'NONE', *, *, #305, .T. ) ;
#208 = EDGE_LOOP ( 'NONE', ( #301, #202, #367, #203 ) ) ;
#209 = DIRECTION ( 'NONE',  ( 0.0000000000000000000, 0.0000000000000000000, 1.000000000000000000 ) ) ;
#210 = FACE_OUTER_BOUND ( 'NONE', #186, .T. ) ;
#211 = PERSON_AND_ORGANIZATION_ROLE ( 'classification_officer' ) ;
#212 = ORIENTED_EDGE ( 'NONE', *, *, #396, .T. ) ;
#213 = ORIENTED_EDGE ( 'NONE', *, *, #177, .F. ) ;
#214 = FACE_OUTER_BOUND ( 'NONE', #198, .T. ) ;
#215 = AXIS2_PLACEMENT_3D ( 'NONE', #277, #121, #332 ) ;
#216 = CLOSED_SHELL ( 'NONE', ( #105, #325, #347, #112, #174, #178, #294, #365, #17, #80, #145, #53, #219 ) ) ;
#217 = ORIENTED_EDGE ( 'NONE', *, *, #26, .F. ) ;
#218 = ORIENTED_EDGE ( 'NONE', *, *, #266, .F. ) ;
#219 = ADVANCED_FACE ( 'NONE', ( #32 ), #377, .F. ) ;
#220 = ORIENTED_EDGE ( 'NONE', *, *, #283, .T. ) ;
#221 = CC_DESIGN_APPROVAL ( #195, ( #173 ) ) ;
#222 = ORIENTED_EDGE ( 'NONE', *, *, #237, .F. ) ;
#223 = CARTESIAN_POINT ( 'NONE',  ( 0.0000000000000000000, 0.0000000000000000000, 5.249999999999999100 ) ) ;
#224 = ORIENTED_EDGE ( 'NONE', *, *, #91, .F. ) ;
#225 = DIRECTION ( 'NONE',  ( 0.0000000000000000000, 0.0000000000000000000, 1.000000000000000000 ) ) ;
#226 = EDGE_CURVE ( 'NONE', #189, #99, #110, .T. ) ;
#227 = CARTESIAN_POINT ( 'NONE',  ( 160.0000000000000000, 0.0000000000000000000, 0.0000000000000000000 ) ) ;
#228 = LINE ( 'NONE', #282, #39 ) ;
#229 = EDGE_LOOP ( 'NONE', ( #213, #106, #8, #276 ) ) ;
#230 = EDGE_LOOP ( 'NONE', ( #236, #207 ) ) ;
#231 = FACE_OUTER_BOUND ( 'NONE', #361, .T. ) ;
#232 = CARTESIAN_POINT ( 'NONE',  ( 0.0000000000000000000, 5.832380380939271100E-016, -4.762500000000001100 ) ) ;
#233 = APPROVAL_STATUS ( 'not_yet_approved' ) ;
#234 = AXIS2_PLACEMENT_3D ( 'NONE', #280, #23, #92 ) ;
#235 = LINE ( 'NONE', #48, #82 ) ;
#236 = ORIENTED_EDGE ( 'NONE', *, *, #26, .T. ) ;
#237 = EDGE_CURVE ( 'NONE', #74, #101, #138, .T. ) ;
#238 = DIRECTION ( 'NONE',  ( -1.000000000000000000, -0.0000000000000000000, -0.0000000000000000000 ) ) ;
#239 = EDGE_CURVE ( 'NONE', #149, #134, #75, .T. ) ;
#240 = APPROVAL_ROLE ( '' ) ;
#241 = DIRECTION ( 'NONE',  ( -1.000000000000000000, -0.0000000000000000000, -0.0000000000000000000 ) ) ;
#242 = LINE ( 'NONE', #352, #264 ) ;
#243 = CARTESIAN_POINT ( 'NONE',  ( 118.0000000000000000, 5.249999999999999100, 0.0000000000000000000 ) ) ;
#244 = CIRCLE ( 'NONE', #270, 7.000000000000000000 ) ;
#245 = ORIENTED_EDGE ( 'NONE', *, *, #66, .T. ) ;
#246 = CC_DESIGN_PERSON_AND_ORGANIZATION_ASSIGNMENT ( #348, #330, ( #173 ) ) ;
#247 = EDGE_CURVE ( 'NONE', #169, #76, #242, .T. ) ;
#248 = AXIS2_PLACEMENT_3D ( 'NONE', #163, #388, #200 ) ;
#249 = FACE_OUTER_BOUND ( 'NONE', #61, .T. ) ;
#250 = DIRECTION ( 'NONE',  ( -1.000000000000000000, -0.0000000000000000000, -0.0000000000000000000 ) ) ;
#251 = CARTESIAN_POINT ( 'NONE',  ( 127.5125000000000000, 0.0000000000000000000, 5.250000000000000000 ) ) ;
#252 = ORIENTED_EDGE ( 'NONE', *, *, #271, .T. ) ;
#253 = DIRECTION ( 'NONE',  ( -1.000000000000000000, -0.0000000000000000000, -0.0000000000000000000 ) ) ;
#254 = DIRECTION ( 'NONE',  ( -0.9969173337331278500, 9.608468044710128900E-018, -0.07845909572784511000 ) ) ;
#255 = CYLINDRICAL_SURFACE ( 'NONE', #234, 5.249999999999999100 ) ;
#256 = CARTESIAN_POINT ( 'NONE',  ( 127.9168330411589400, 1.166476076187854000E-015, -9.525000000000000400 ) ) ;
#257 = CARTESIAN_POINT ( 'NONE',  ( 160.0000000000000000, 8.572527594031473200E-016, -7.000000000000000000 ) ) ;
#258 = CYLINDRICAL_SURFACE ( 'NONE', #400, 5.249999999999999100 ) ;
#259 = VERTEX_POINT ( 'NONE', #251 ) ;
#260 = CC_DESIGN_PERSON_AND_ORGANIZATION_ASSIGNMENT ( #401, #171, ( #173 ) ) ;
#261 = PERSON ( 'UNSPECIFIED', 'UNSPECIFIED', 'UNSPECIFIED', ('UNSPECIFIED'), ('UNSPECIFIED'), ('UNSPECIFIED') ) ;
#262 = VECTOR ( 'NONE', #72, 1000.000000000000000 ) ;
#263 = CYLINDRICAL_SURFACE ( 'NONE', #181, 9.525000000000000400 ) ;
#264 = VECTOR ( 'NONE', #123, 1000.000000000000000 ) ;
#265 = ORIENTED_EDGE ( 'NONE', *, *, #66, .F. ) ;
#266 = EDGE_CURVE ( 'NONE', #176, #97, #6, .T. ) ;
#267 = CARTESIAN_POINT ( 'NONE',  ( 127.5125000000000000, 0.0000000000000000000, 0.0000000000000000000 ) ) ;
#268 = CARTESIAN_POINT ( 'NONE',  ( 160.0000000000000000, 1.011864417795500600E-015, -7.000000000000000000 ) ) ;
#269 = DIRECTION ( 'NONE',  ( -1.000000000000000000, -0.0000000000000000000, -0.0000000000000000000 ) ) ;
#270 = AXIS2_PLACEMENT_3D ( 'NONE', #125, #81, #384 ) ;
#271 = EDGE_CURVE ( 'NONE', #259, #101, #164, .T. ) ;
#272 = ORIENTED_EDGE ( 'NONE', *, *, #305, .F. ) ;
#273 = DIRECTION ( 'NONE',  ( -1.000000000000000000, -0.0000000000000000000, -0.0000000000000000000 ) ) ;
#274 = DIRECTION ( 'NONE',  ( 0.0000000000000000000, 0.0000000000000000000, 1.000000000000000000 ) ) ;
#275 = AXIS2_PLACEMENT_3D ( 'NONE', #243, #154, #33 ) ;
#276 = ORIENTED_EDGE ( 'NONE', *, *, #271, .F. ) ;
#277 = CARTESIAN_POINT ( 'NONE',  ( 128.0000000000000000, 0.0000000000000000000, 0.0000000000000000000 ) ) ;
#278 = CARTESIAN_POINT ( 'NONE',  ( -1.944126793646423500E-016, 0.0000000000000000000, 9.525000000000000400 ) ) ;
#279 = SECURITY_CLASSIFICATION ( '', '', #317 ) ;
#280 = CARTESIAN_POINT ( 'NONE',  ( 0.0000000000000000000, 0.0000000000000000000, 0.0000000000000000000 ) ) ;
#281 = FACE_OUTER_BOUND ( 'NONE', #390, .T. ) ;
#282 = CARTESIAN_POINT ( 'NONE',  ( 160.0000000000000000, 0.0000000000000000000, 7.000000000000000000 ) ) ;
#283 = EDGE_CURVE ( 'NONE', #97, #76, #182, .T. ) ;
#284 = SHAPE_DEFINITION_REPRESENTATION ( #324, #166 ) ;
#285 = CARTESIAN_POINT ( 'NONE',  ( 0.0000000000000000000, 0.0000000000000000000, 0.0000000000000000000 ) ) ;
#286 = AXIS2_PLACEMENT_3D ( 'NONE', #103, #65, #374 ) ;
#287 = ORIENTED_EDGE ( 'NONE', *, *, #177, .T. ) ;
#288 = ORGANIZATION ( 'UNSPECIFIED', 'UNSPECIFIED', '' ) ;
#289 = PERSON_AND_ORGANIZATION_ROLE ( 'creator' ) ;
#290 = APPLICATION_PROTOCOL_DEFINITION ( 'international standard', 'config_control_design', 1994, #161 ) ;
#291 = ORIENTED_EDGE ( 'NONE', *, *, #396, .F. ) ;
#292 = AXIS2_PLACEMENT_3D ( 'NONE', #267, #391, #90 ) ;
#293 = VECTOR ( 'NONE', #254, 1000.000000000000100 ) ;
#294 = ADVANCED_FACE ( 'NONE', ( #201 ), #263, .T. ) ;
#295 = CARTESIAN_POINT ( 'NONE',  ( 118.0000000000000000, 0.0000000000000000000, 5.249999999999999100 ) ) ;
#296 = ORIENTED_EDGE ( 'NONE', *, *, #226, .T. ) ;
#297 = CARTESIAN_POINT ( 'NONE',  ( 0.0000000000000000000, 6.429395695523603200E-016, -5.249999999999999100 ) ) ;
#298 = PERSON_AND_ORGANIZATION ( #261, #288 ) ;
#299 = DIRECTION ( 'NONE',  ( -1.000000000000000000, -0.0000000000000000000, -0.0000000000000000000 ) ) ;
#300 = PERSON_AND_ORGANIZATION ( #261, #288 ) ;
#301 = ORIENTED_EDGE ( 'NONE', *, *, #239, .T. ) ;
#302 = CALENDAR_DATE ( 2017, 24, 3 ) ;
#303 = APPROVAL_PERSON_ORGANIZATION ( #300, #89, #46 ) ;
#304 = CC_DESIGN_PERSON_AND_ORGANIZATION_ASSIGNMENT ( #18, #211, ( #279 ) ) ;
#305 = EDGE_CURVE ( 'NONE', #189, #133, #51, .T. ) ;
#306 = APPROVAL_DATE_TIME ( #312, #89 ) ;
#307 = UNCERTAINTY_MEASURE_WITH_UNIT (LENGTH_MEASURE( 1.000000000000000100E-005 ), #360, 'distance_accuracy_value', 'NONE');
#308 = AXIS2_PLACEMENT_3D ( 'NONE', #132, #194, #363 ) ;
#309 = DIRECTION ( 'NONE',  ( -0.0000000000000000000, 0.0000000000000000000, 1.000000000000000000 ) ) ;
#310 = CARTESIAN_POINT ( 'NONE',  ( 128.0000000000000000, 0.0000000000000000000, 4.762500000000001100 ) ) ;
#311 = ORIENTED_EDGE ( 'NONE', *, *, #52, .T. ) ;
#312 = DATE_AND_TIME ( #302, #20 ) ;
#313 = CARTESIAN_POINT ( 'NONE',  ( 127.5125000000000000, 6.429395695523605100E-016, -5.250000000000000000 ) ) ;
#314 = AXIS2_PLACEMENT_3D ( 'NONE', #204, #2, #175 ) ;
#315 = DIRECTION ( 'NONE',  ( 0.0000000000000000000, 0.0000000000000000000, 1.000000000000000000 ) ) ;
#316 = ORIENTED_EDGE ( 'NONE', *, *, #355, .T. ) ;
#317 = SECURITY_CLASSIFICATION_LEVEL ( 'unclassified' ) ;
#318 = PERSON_AND_ORGANIZATION ( #261, #288 ) ;
#319 = COORDINATED_UNIVERSAL_TIME_OFFSET ( 8, 0, .AHEAD. ) ;
#320 =( NAMED_UNIT ( * ) PLANE_ANGLE_UNIT ( ) SI_UNIT ( $, .RADIAN. ) );
#321 = CC_DESIGN_DATE_AND_TIME_ASSIGNMENT ( #15, #336, ( #279 ) ) ;
#322 = VERTEX_POINT ( 'NONE', #313 ) ;
#323 = DIRECTION ( 'NONE',  ( -1.000000000000000000, -0.0000000000000000000, -0.0000000000000000000 ) ) ;
#324 = PRODUCT_DEFINITION_SHAPE ( 'NONE', 'NONE',  #64 ) ;
#325 = ADVANCED_FACE ( 'NONE', ( #136 ), #255, .F. ) ;
#326 = DATE_AND_TIME ( #24, #328 ) ;
#327 = EDGE_CURVE ( 'NONE', #322, #74, #130, .T. ) ;
#328 = LOCAL_TIME ( 14, 9, 6.000000000000000000, #319 ) ;
#329 = APPROVAL_PERSON_ORGANIZATION ( #331, #195, #342 ) ;
#330 = PERSON_AND_ORGANIZATION_ROLE ( 'creator' ) ;
#331 = PERSON_AND_ORGANIZATION ( #261, #288 ) ;
#332 = DIRECTION ( 'NONE',  ( 0.0000000000000000000, 0.0000000000000000000, 1.000000000000000000 ) ) ;
#333 = COORDINATED_UNIVERSAL_TIME_OFFSET ( 8, 0, .AHEAD. ) ;
#334 = AXIS2_PLACEMENT_3D ( 'NONE', #35, #323, #50 ) ;
#335 = CARTESIAN_POINT ( 'NONE',  ( -1.944126793646423500E-016, 0.0000000000000000000, 0.0000000000000000000 ) ) ;
#336 = DATE_TIME_ROLE ( 'classification_date' ) ;
#337 = CARTESIAN_POINT ( 'NONE',  ( 0.0000000000000000000, 0.0000000000000000000, 0.0000000000000000000 ) ) ;
#338 = MECHANICAL_CONTEXT ( 'NONE', #161, 'mechanical' ) ;
#339 = LOCAL_TIME ( 14, 9, 6.000000000000000000, #333 ) ;
#340 = APPROVAL_DATE_TIME ( #21, #195 ) ;
#341 = CARTESIAN_POINT ( 'NONE',  ( 160.0000000000000000, 0.0000000000000000000, 4.762500000000000200 ) ) ;
#342 = APPROVAL_ROLE ( '' ) ;
#343 = CONICAL_SURFACE ( 'NONE', #205, 4.762500000000001100, 0.7853981633974456100 ) ;
#344 = CALENDAR_DATE ( 2017, 24, 3 ) ;
#345 = COORDINATED_UNIVERSAL_TIME_OFFSET ( 8, 0, .AHEAD. ) ;
#346 = AXIS2_PLACEMENT_3D ( 'NONE', #395, #29, #95 ) ;
#347 = ADVANCED_FACE ( 'NONE', ( #117 ), #343, .F. ) ;
#348 = PERSON_AND_ORGANIZATION ( #261, #288 ) ;
#349 = LOCAL_TIME ( 14, 9, 6.000000000000000000, #345 ) ;
#350 = DIRECTION ( 'NONE',  ( 0.0000000000000000000, 0.0000000000000000000, 1.000000000000000000 ) ) ;
#351 = APPROVAL ( #368, 'UNSPECIFIED' ) ;
#352 = CARTESIAN_POINT ( 'NONE',  ( 0.0000000000000000000, 0.0000000000000000000, 9.525000000000000400 ) ) ;
#353 = APPROVAL_PERSON_ORGANIZATION ( #11, #351, #240 ) ;
#354 = VECTOR ( 'NONE', #190, 1000.000000000000000 ) ;
#355 = EDGE_CURVE ( 'NONE', #99, #87, #197, .T. ) ;
#356 = DIRECTION ( 'NONE',  ( 0.0000000000000000000, 0.0000000000000000000, -1.000000000000000000 ) ) ;
#357 = DATE_AND_TIME ( #9, #1 ) ;
#358 = COORDINATED_UNIVERSAL_TIME_OFFSET ( 8, 0, .AHEAD. ) ;
#359 =( GEOMETRIC_REPRESENTATION_CONTEXT ( 3 ) GLOBAL_UNCERTAINTY_ASSIGNED_CONTEXT ( ( #307 ) ) GLOBAL_UNIT_ASSIGNED_CONTEXT ( ( #360, #320, #71 ) ) REPRESENTATION_CONTEXT ( 'NONE', 'WORKASPACE' ) );
#360 =( LENGTH_UNIT ( ) NAMED_UNIT ( * ) SI_UNIT ( .MILLI., .METRE. ) );
#361 = EDGE_LOOP ( 'NONE', ( #160, #222 ) ) ;
#362 = APPROVAL_DATE_TIME ( #357, #351 ) ;
#363 = DIRECTION ( 'NONE',  ( 0.0000000000000000000, 0.0000000000000000000, 1.000000000000000000 ) ) ;
#364 = CARTESIAN_POINT ( 'NONE',  ( 118.0000000000000000, 6.429395695523603200E-016, -5.249999999999999100 ) ) ;
#365 = ADVANCED_FACE ( 'NONE', ( #249 ), #3, .T. ) ;
#366 = AXIS2_PLACEMENT_3D ( 'NONE', #58, #94, #225 ) ;
#367 = ORIENTED_EDGE ( 'NONE', *, *, #52, .F. ) ;
#368 = APPROVAL_STATUS ( 'not_yet_approved' ) ;
#369 = PLANE ( 'NONE',  #275 ) ;
#370 = DIRECTION ( 'NONE',  ( 0.0000000000000000000, 0.0000000000000000000, 1.000000000000000000 ) ) ;
#371 = ORIENTED_EDGE ( 'NONE', *, *, #247, .T. ) ;
#372 = DESIGN_CONTEXT ( 'detailed design', #10, 'design' ) ;
#373 = CC_DESIGN_APPROVAL ( #351, ( #279 ) ) ;
#374 = DIRECTION ( 'NONE',  ( 0.0000000000000000000, 0.0000000000000000000, 1.000000000000000000 ) ) ;
#375 = EDGE_CURVE ( 'NONE', #134, #149, #244, .T. ) ;
#376 = DIRECTION ( 'NONE',  ( 1.000000000000000000, 0.0000000000000000000, 0.0000000000000000000 ) ) ;
#377 = CYLINDRICAL_SURFACE ( 'NONE', #98, 4.762500000000001100 ) ;
#378 = EDGE_CURVE ( 'NONE', #87, #99, #93, .T. ) ;
#379 = VECTOR ( 'NONE', #192, 1000.000000000000000 ) ;
#380 = DIRECTION ( 'NONE',  ( 0.0000000000000000000, 0.0000000000000000000, 1.000000000000000000 ) ) ;
#381 = CARTESIAN_POINT ( 'NONE',  ( 128.0000000000000000, 0.0000000000000000000, 4.762500000000001100 ) ) ;
#382 = DIRECTION ( 'NONE',  ( -1.000000000000000000, -0.0000000000000000000, -0.0000000000000000000 ) ) ;
#383 = CARTESIAN_POINT ( 'NONE',  ( 128.0000000000000000, 0.0000000000000000000, 0.0000000000000000000 ) ) ;
#384 = DIRECTION ( 'NONE',  ( 0.0000000000000000000, 0.0000000000000000000, 1.000000000000000000 ) ) ;
#385 = CC_DESIGN_SECURITY_CLASSIFICATION ( #279, ( #173 ) ) ;
#386 = DIRECTION ( 'NONE',  ( 0.0000000000000000000, 0.0000000000000000000, 1.000000000000000000 ) ) ;
#387 = EDGE_CURVE ( 'NONE', #101, #74, #389, .T. ) ;
#388 = DIRECTION ( 'NONE',  ( -1.000000000000000000, -0.0000000000000000000, -0.0000000000000000000 ) ) ;
#389 = CIRCLE ( 'NONE', #308, 5.249999999999999100 ) ;
#390 = EDGE_LOOP ( 'NONE', ( #86, #146, #47, #62 ) ) ;
#391 = DIRECTION ( 'NONE',  ( -1.000000000000000000, -0.0000000000000000000, -0.0000000000000000000 ) ) ;
#392 = DIRECTION ( 'NONE',  ( -1.000000000000000000, 0.0000000000000000000, -0.0000000000000000000 ) ) ;
#393 = DIRECTION ( 'NONE',  ( -1.000000000000000000, -0.0000000000000000000, -0.0000000000000000000 ) ) ;
#394 = DIRECTION ( 'NONE',  ( -0.9969173337331278500, 0.0000000000000000000, 0.07845909572784511000 ) ) ;
#395 = CARTESIAN_POINT ( 'NONE',  ( 0.0000000000000000000, 0.0000000000000000000, 0.0000000000000000000 ) ) ;
#396 = EDGE_CURVE ( 'NONE', #176, #169, #156, .T. ) ;
#397 = LINE ( 'NONE', #152, #144 ) ;
#398 = EDGE_LOOP ( 'NONE', ( #116, #217, #245, #54 ) ) ;
#399 = ORIENTED_EDGE ( 'NONE', *, *, #199, .T. ) ;
#400 = AXIS2_PLACEMENT_3D ( 'NONE', #337, #238, #380 ) ;
#401 = PERSON_AND_ORGANIZATION ( #261, #288 ) ;
#402 = CIRCLE ( 'NONE', #84, 9.525000000000000400 ) ;
#403 = PLANE ( 'NONE',  #41 ) ;
#404 = PRODUCT_RELATED_PRODUCT_CATEGORY ( 'detail', '', ( #4 ) ) ;
#405 = DIRECTION ( 'NONE',  ( -1.000000000000000000, -0.0000000000000000000, -0.0000000000000000000 ) ) ;
ENDSEC;
END-ISO-10303-21;
