ISO-10303-21;
HEADER;
FILE_DESCRIPTION (( 'STEP AP203' ),
    '1' );
FILE_NAME ('STP-86066.STEP',
    '2017-02-10T05:17:06',
    ( 'user' ),
    ( '' ),
    'SwSTEP 2.0',
    'SolidWorks 2015',
    '' );
FILE_SCHEMA (( 'CONFIG_CONTROL_DESIGN' ));
ENDSEC;

DATA;
#1 = DESIGN_CONTEXT ( 'detailed design', #250, 'design' ) ;
#2 = EDGE_LOOP ( 'NONE', ( #305, #267, #278, #310 ) ) ;
#3 = CARTESIAN_POINT ( 'NONE',  ( 160.0000000000000000, 0.0000000000000000000, 0.0000000000000000000 ) ) ;
#4 = ORIENTED_EDGE ( 'NONE', *, *, #337, .T. ) ;
#5 = AXIS2_PLACEMENT_3D ( 'NONE', #382, #348, #291 ) ;
#6 = DIRECTION ( 'NONE',  ( -1.000000000000000000, -0.0000000000000000000, -0.0000000000000000000 ) ) ;
#7 = PERSON_AND_ORGANIZATION_ROLE ( 'creator' ) ;
#8 = CALENDAR_DATE ( 2017, 10, 2 ) ;
#9 = EDGE_CURVE ( 'NONE', #61, #285, #294, .T. ) ;
#10 =( NAMED_UNIT ( * ) PLANE_ANGLE_UNIT ( ) SI_UNIT ( $, .RADIAN. ) );
#11 = DIRECTION ( 'NONE',  ( -1.000000000000000000, -0.0000000000000000000, -0.0000000000000000000 ) ) ;
#12 = CIRCLE ( 'NONE', #134, 3.174999999999999800 ) ;
#13 = ORIENTED_EDGE ( 'NONE', *, *, #166, .T. ) ;
#14 = CARTESIAN_POINT ( 'NONE',  ( 134.0000000000000000, 3.888253587292846100E-016, -3.174999999999999800 ) ) ;
#15 = DIRECTION ( 'NONE',  ( 1.000000000000000000, 0.0000000000000000000, 0.0000000000000000000 ) ) ;
#16 = DIRECTION ( 'NONE',  ( -0.7071067811865597900, 8.659560562354782500E-017, -0.7071067811865352500 ) ) ;
#17 = LINE ( 'NONE', #395, #22 ) ;
#18 = AXIS2_PLACEMENT_3D ( 'NONE', #195, #264, #215 ) ;
#19 = FACE_OUTER_BOUND ( 'NONE', #122, .T. ) ;
#20 = PERSON ( 'UNSPECIFIED', 'UNSPECIFIED', 'UNSPECIFIED', ('UNSPECIFIED'), ('UNSPECIFIED'), ('UNSPECIFIED') ) ;
#21 = CIRCLE ( 'NONE', #365, 3.750000000000000000 ) ;
#22 = VECTOR ( 'NONE', #262, 1000.000000000000000 ) ;
#23 = ORIENTED_EDGE ( 'NONE', *, *, #56, .F. ) ;
#24 = AXIS2_PLACEMENT_3D ( 'NONE', #351, #135, #72 ) ;
#25 = CYLINDRICAL_SURFACE ( 'NONE', #340, 3.749999999999998200 ) ;
#26 = CALENDAR_DATE ( 2017, 10, 2 ) ;
#27 = EDGE_CURVE ( 'NONE', #155, #357, #77, .T. ) ;
#28 = FACE_OUTER_BOUND ( 'NONE', #150, .T. ) ;
#29 = EDGE_LOOP ( 'NONE', ( #179, #358, #335, #329 ) ) ;
#30 = DIRECTION ( 'NONE',  ( -1.000000000000000000, -0.0000000000000000000, -0.0000000000000000000 ) ) ;
#31 = ORIENTED_EDGE ( 'NONE', *, *, #9, .F. ) ;
#32 = CARTESIAN_POINT ( 'NONE',  ( 160.0000000000000000, 0.0000000000000000000, 5.000000000000000000 ) ) ;
#33 = EDGE_CURVE ( 'NONE', #234, #248, #153, .T. ) ;
#34 = AXIS2_PLACEMENT_3D ( 'NONE', #383, #302, #352 ) ;
#35 = CARTESIAN_POINT ( 'NONE',  ( 134.0000000000000000, 0.0000000000000000000, 0.0000000000000000000 ) ) ;
#36 = DATE_AND_TIME ( #26, #300 ) ;
#37 = APPROVAL_ROLE ( '' ) ;
#38 = CIRCLE ( 'NONE', #181, 3.174999999999999800 ) ;
#39 = DIRECTION ( 'NONE',  ( 0.0000000000000000000, 0.0000000000000000000, 1.000000000000000000 ) ) ;
#40 = CYLINDRICAL_SURFACE ( 'NONE', #176, 3.174999999999999800 ) ;
#41 = DIRECTION ( 'NONE',  ( 0.0000000000000000000, 0.0000000000000000000, 1.000000000000000000 ) ) ;
#42 = CARTESIAN_POINT ( 'NONE',  ( 160.0000000000000000, 7.921933981984440700E-016, -5.000000000000000000 ) ) ;
#43 = CARTESIAN_POINT ( 'NONE',  ( 134.0000000000000000, 4.240339542047710000E-016, -3.174999999999999800 ) ) ;
#44 = CARTESIAN_POINT ( 'NONE',  ( 133.4249999999999800, 0.0000000000000000000, 0.0000000000000000000 ) ) ;
#45 = CARTESIAN_POINT ( 'NONE',  ( 160.0000000000000000, 0.0000000000000000000, 3.174999999999999800 ) ) ;
#46 = PRODUCT_DEFINITION ( 'UNKNOWN', '', #177, #1 ) ;
#47 = DIRECTION ( 'NONE',  ( -1.000000000000000000, -0.0000000000000000000, -0.0000000000000000000 ) ) ;
#48 = ORIENTED_EDGE ( 'NONE', *, *, #166, .F. ) ;
#49 = DIRECTION ( 'NONE',  ( -1.000000000000000000, -0.0000000000000000000, -0.0000000000000000000 ) ) ;
#50 = CARTESIAN_POINT ( 'NONE',  ( 124.0000000000000000, 0.0000000000000000000, 0.0000000000000000000 ) ) ;
#51 = AXIS2_PLACEMENT_3D ( 'NONE', #3, #229, #297 ) ;
#52 = LINE ( 'NONE', #14, #199 ) ;
#53 = EDGE_CURVE ( 'NONE', #88, #375, #178, .T. ) ;
#54 = CONICAL_SURFACE ( 'NONE', #380, 5.000000000000000000, 0.07853981633974502200 ) ;
#55 = FACE_OUTER_BOUND ( 'NONE', #113, .T. ) ;
#56 = EDGE_CURVE ( 'NONE', #308, #155, #366, .T. ) ;
#57 = DIRECTION ( 'NONE',  ( -1.000000000000000000, -0.0000000000000000000, -0.0000000000000000000 ) ) ;
#58 = CIRCLE ( 'NONE', #34, 3.749999999999996900 ) ;
#59 = EDGE_LOOP ( 'NONE', ( #48, #124 ) ) ;
#60 = APPROVAL_PERSON_ORGANIZATION ( #282, #157, #104 ) ;
#61 = VERTEX_POINT ( 'NONE', #227 ) ;
#62 = CARTESIAN_POINT ( 'NONE',  ( 0.0000000000000000000, 9.720633968232116200E-016, -7.937500000000000000 ) ) ;
#63 = VECTOR ( 'NONE', #145, 1000.000000000000100 ) ;
#64 = DIRECTION ( 'NONE',  ( -1.000000000000000000, -0.0000000000000000000, -0.0000000000000000000 ) ) ;
#65 = MANIFOLD_SOLID_BREP ( '°£®Æ-±ÛÂà1', #326 ) ;
#66 = CARTESIAN_POINT ( 'NONE',  ( 122.6755235874869100, 0.0000000000000000000, 0.0000000000000000000 ) ) ;
#67 = DIRECTION ( 'NONE',  ( 0.0000000000000000000, 0.0000000000000000000, 1.000000000000000000 ) ) ;
#68 = APPROVAL_STATUS ( 'not_yet_approved' ) ;
#69 = ORIENTED_EDGE ( 'NONE', *, *, #102, .T. ) ;
#70 = DATE_TIME_ROLE ( 'creation_date' ) ;
#71 = EDGE_CURVE ( 'NONE', #155, #308, #12, .T. ) ;
#72 = DIRECTION ( 'NONE',  ( 0.0000000000000000000, 0.0000000000000000000, 1.000000000000000000 ) ) ;
#73 = CARTESIAN_POINT ( 'NONE',  ( 0.0000000000000000000, 0.0000000000000000000, 0.0000000000000000000 ) ) ;
#74 = DIRECTION ( 'NONE',  ( -1.000000000000000000, -0.0000000000000000000, -0.0000000000000000000 ) ) ;
#75 = CARTESIAN_POINT ( 'NONE',  ( 122.6755235874869100, 0.0000000000000000000, 7.937500000000000000 ) ) ;
#76 = EDGE_LOOP ( 'NONE', ( #217, #214 ) ) ;
#77 = LINE ( 'NONE', #123, #277 ) ;
#78 = DIRECTION ( 'NONE',  ( 0.0000000000000000000, 0.0000000000000000000, 1.000000000000000000 ) ) ;
#79 = DIRECTION ( 'NONE',  ( -1.000000000000000000, -0.0000000000000000000, -0.0000000000000000000 ) ) ;
#80 = PRODUCT_DEFINITION_SHAPE ( 'NONE', 'NONE',  #46 ) ;
#81 = EDGE_CURVE ( 'NONE', #248, #88, #82, .T. ) ;
#82 = LINE ( 'NONE', #160, #301 ) ;
#83 = ORIENTED_EDGE ( 'NONE', *, *, #117, .T. ) ;
#84 = COORDINATED_UNIVERSAL_TIME_OFFSET ( 8, 0, .AHEAD. ) ;
#85 = ORIENTED_EDGE ( 'NONE', *, *, #312, .T. ) ;
#86 = EDGE_LOOP ( 'NONE', ( #101, #23, #4, #95 ) ) ;
#87 = FACE_OUTER_BOUND ( 'NONE', #29, .T. ) ;
#88 = VERTEX_POINT ( 'NONE', #317 ) ;
#89 = CIRCLE ( 'NONE', #318, 3.749999999999996900 ) ;
#90 = CALENDAR_DATE ( 2017, 10, 2 ) ;
#91 = PRODUCT ( 'STP-86066', 'STP-86066', '', ( #316 ) ) ;
#92 = DIRECTION ( 'NONE',  ( 1.000000000000000000, 0.0000000000000000000, 0.0000000000000000000 ) ) ;
#93 = EDGE_CURVE ( 'NONE', #357, #266, #38, .T. ) ;
#94 = APPLICATION_CONTEXT ( 'configuration controlled 3d designs of mechanical parts and assemblies' ) ;
#95 = ORIENTED_EDGE ( 'NONE', *, *, #292, .T. ) ;
#96 = DIRECTION ( 'NONE',  ( -1.000000000000000000, -0.0000000000000000000, -0.0000000000000000000 ) ) ;
#97 = DIRECTION ( 'NONE',  ( -1.000000000000000000, -0.0000000000000000000, -0.0000000000000000000 ) ) ;
#98 = VERTEX_POINT ( 'NONE', #325 ) ;
#99 = CARTESIAN_POINT ( 'NONE',  ( 0.0000000000000000000, 4.592425496802572000E-016, -3.749999999999998200 ) ) ;
#100 = FACE_OUTER_BOUND ( 'NONE', #2, .T. ) ;
#101 = ORIENTED_EDGE ( 'NONE', *, *, #27, .F. ) ;
#102 = EDGE_CURVE ( 'NONE', #248, #283, #149, .T. ) ;
#103 = DATE_TIME_ROLE ( 'classification_date' ) ;
#104 = APPROVAL_ROLE ( '' ) ;
#105 = CARTESIAN_POINT ( 'NONE',  ( 134.0000000000000000, 0.0000000000000000000, 3.174999999999999800 ) ) ;
#106 = CARTESIAN_POINT ( 'NONE',  ( 0.0000000000000000000, 0.0000000000000000000, 0.0000000000000000000 ) ) ;
#107 = DIRECTION ( 'NONE',  ( -1.000000000000000000, -0.0000000000000000000, -0.0000000000000000000 ) ) ;
#108 = ADVANCED_FACE ( 'NONE', ( #100 ), #54, .T. ) ;
#109 = DIRECTION ( 'NONE',  ( -0.7071067811865597900, 0.0000000000000000000, 0.7071067811865352500 ) ) ;
#110 = PERSON_AND_ORGANIZATION ( #20, #361 ) ;
#111 = VECTOR ( 'NONE', #79, 1000.000000000000000 ) ;
#112 = AXIS2_PLACEMENT_3D ( 'NONE', #354, #141, #330 ) ;
#113 = EDGE_LOOP ( 'NONE', ( #286, #130, #152, #182 ) ) ;
#114 = CC_DESIGN_APPROVAL ( #157, ( #46 ) ) ;
#115 = FACE_OUTER_BOUND ( 'NONE', #287, .T. ) ;
#116 = CIRCLE ( 'NONE', #136, 7.937500000000000000 ) ;
#117 = EDGE_CURVE ( 'NONE', #61, #98, #17, .T. ) ;
#118 = DATE_AND_TIME ( #8, #260 ) ;
#119 = DIRECTION ( 'NONE',  ( 0.0000000000000000000, 0.0000000000000000000, -1.000000000000000000 ) ) ;
#120 = FACE_OUTER_BOUND ( 'NONE', #159, .T. ) ;
#121 = CARTESIAN_POINT ( 'NONE',  ( 133.4249999999999800, 4.592425496802574000E-016, -3.750000000000000000 ) ) ;
#122 = EDGE_LOOP ( 'NONE', ( #374, #404, #156, #370 ) ) ;
#123 = CARTESIAN_POINT ( 'NONE',  ( 0.0000000000000000000, 3.888253587292846100E-016, -3.174999999999999800 ) ) ;
#124 = ORIENTED_EDGE ( 'NONE', *, *, #212, .F. ) ;
#125 =( GEOMETRIC_REPRESENTATION_CONTEXT ( 3 ) GLOBAL_UNCERTAINTY_ASSIGNED_CONTEXT ( ( #368 ) ) GLOBAL_UNIT_ASSIGNED_CONTEXT ( ( #221, #10, #197 ) ) REPRESENTATION_CONTEXT ( 'NONE', 'WORKASPACE' ) );
#126 = CIRCLE ( 'NONE', #5, 5.000000000000000000 ) ;
#127 = CC_DESIGN_PERSON_AND_ORGANIZATION_ASSIGNMENT ( #242, #293, ( #46 ) ) ;
#128 = SECURITY_CLASSIFICATION_LEVEL ( 'unclassified' ) ;
#129 = DIRECTION ( 'NONE',  ( 0.0000000000000000000, 0.0000000000000000000, 1.000000000000000000 ) ) ;
#130 = ORIENTED_EDGE ( 'NONE', *, *, #147, .T. ) ;
#131 = APPLICATION_PROTOCOL_DEFINITION ( 'international standard', 'config_control_design', 1994, #250 ) ;
#132 = DIRECTION ( 'NONE',  ( 1.000000000000000000, 0.0000000000000000000, 0.0000000000000000000 ) ) ;
#133 = CALENDAR_DATE ( 2017, 10, 2 ) ;
#134 = AXIS2_PLACEMENT_3D ( 'NONE', #331, #334, #324 ) ;
#135 = DIRECTION ( 'NONE',  ( -1.000000000000000000, -0.0000000000000000000, -0.0000000000000000000 ) ) ;
#136 = AXIS2_PLACEMENT_3D ( 'NONE', #327, #107, #296 ) ;
#137 = CALENDAR_DATE ( 2017, 10, 2 ) ;
#138 = CONICAL_SURFACE ( 'NONE', #396, 3.174999999999999800, 0.7853981633974309600 ) ;
#139 = DIRECTION ( 'NONE',  ( 0.0000000000000000000, 0.0000000000000000000, 1.000000000000000000 ) ) ;
#140 = DIRECTION ( 'NONE',  ( 0.0000000000000000000, 0.0000000000000000000, 1.000000000000000000 ) ) ;
#141 = DIRECTION ( 'NONE',  ( -1.000000000000000000, -0.0000000000000000000, -0.0000000000000000000 ) ) ;
#142 = PLANE ( 'NONE',  #279 ) ;
#143 = ADVANCED_FACE ( 'NONE', ( #185 ), #299, .F. ) ;
#144 = VERTEX_POINT ( 'NONE', #222 ) ;
#145 = DIRECTION ( 'NONE',  ( -0.9969173337331278500, 0.0000000000000000000, 0.07845909572784512400 ) ) ;
#146 = AXIS2_PLACEMENT_3D ( 'NONE', #163, #259, #243 ) ;
#147 = EDGE_CURVE ( 'NONE', #357, #285, #52, .T. ) ;
#148 = ADVANCED_FACE ( 'NONE', ( #115 ), #25, .F. ) ;
#149 = CIRCLE ( 'NONE', #359, 7.937500000000000000 ) ;
#150 = EDGE_LOOP ( 'NONE', ( #173, #31, #83, #13 ) ) ;
#151 = LOCAL_TIME ( 13, 17, 6.000000000000000000, #388 ) ;
#152 = ORIENTED_EDGE ( 'NONE', *, *, #401, .T. ) ;
#153 = LINE ( 'NONE', #204, #63 ) ;
#154 = CC_DESIGN_DATE_AND_TIME_ASSIGNMENT ( #118, #70, ( #46 ) ) ;
#155 = VERTEX_POINT ( 'NONE', #254 ) ;
#156 = ORIENTED_EDGE ( 'NONE', *, *, #93, .T. ) ;
#157 = APPROVAL ( #323, 'UNSPECIFIED' ) ;
#158 = AXIS2_PLACEMENT_3D ( 'NONE', #170, #47, #328 ) ;
#159 = EDGE_LOOP ( 'NONE', ( #321, #165, #355, #203 ) ) ;
#160 = CARTESIAN_POINT ( 'NONE',  ( 0.0000000000000000000, 0.0000000000000000000, 7.937500000000000000 ) ) ;
#161 = EDGE_LOOP ( 'NONE', ( #245, #255 ) ) ;
#162 = PLANE ( 'NONE',  #247 ) ;
#163 = CARTESIAN_POINT ( 'NONE',  ( 0.0000000000000000000, 0.0000000000000000000, 0.0000000000000000000 ) ) ;
#164 = ADVANCED_FACE ( 'NONE', ( #187 ), #311, .T. ) ;
#165 = ORIENTED_EDGE ( 'NONE', *, *, #292, .F. ) ;
#166 = EDGE_CURVE ( 'NONE', #98, #144, #58, .T. ) ;
#167 = PERSON_AND_ORGANIZATION_ROLE ( 'design_supplier' ) ;
#168 = APPLICATION_PROTOCOL_DEFINITION ( 'international standard', 'config_control_design', 1994, #94 ) ;
#169 = DIRECTION ( 'NONE',  ( -1.000000000000000000, -0.0000000000000000000, -0.0000000000000000000 ) ) ;
#170 = CARTESIAN_POINT ( 'NONE',  ( 160.0000000000000000, 0.0000000000000000000, 0.0000000000000000000 ) ) ;
#171 = ORIENTED_EDGE ( 'NONE', *, *, #102, .F. ) ;
#172 = CARTESIAN_POINT ( 'NONE',  ( 0.0000000000000000000, 9.720633968232116200E-016, -7.937500000000000000 ) ) ;
#173 = ORIENTED_EDGE ( 'NONE', *, *, #200, .F. ) ;
#174 = ADVANCED_FACE ( 'NONE', ( #393 ), #405, .F. ) ;
#175 = DIRECTION ( 'NONE',  ( -1.000000000000000000, -0.0000000000000000000, -0.0000000000000000000 ) ) ;
#176 = AXIS2_PLACEMENT_3D ( 'NONE', #350, #169, #129 ) ;
#177 = PRODUCT_DEFINITION_FORMATION_WITH_SPECIFIED_SOURCE ( 'ANY', '', #91, .NOT_KNOWN. ) ;
#178 = CIRCLE ( 'NONE', #18, 7.937500000000000000 ) ;
#179 = ORIENTED_EDGE ( 'NONE', *, *, #216, .F. ) ;
#180 = CC_DESIGN_PERSON_AND_ORGANIZATION_ASSIGNMENT ( #196, #344, ( #91 ) ) ;
#181 = AXIS2_PLACEMENT_3D ( 'NONE', #304, #356, #140 ) ;
#182 = ORIENTED_EDGE ( 'NONE', *, *, #208, .F. ) ;
#183 = ORIENTED_EDGE ( 'NONE', *, *, #401, .F. ) ;
#184 = EDGE_LOOP ( 'NONE', ( #244, #210 ) ) ;
#185 = FACE_OUTER_BOUND ( 'NONE', #184, .T. ) ;
#186 = ORIENTED_EDGE ( 'NONE', *, *, #117, .F. ) ;
#187 = FACE_OUTER_BOUND ( 'NONE', #315, .T. ) ;
#188 = CARTESIAN_POINT ( 'NONE',  ( 160.0000000000000000, 6.123233995736766300E-016, -5.000000000000000000 ) ) ;
#189 = ADVANCED_FACE ( 'NONE', ( #87 ), #384, .T. ) ;
#190 = ORIENTED_EDGE ( 'NONE', *, *, #241, .T. ) ;
#191 = ADVANCED_FACE ( 'NONE', ( #19 ), #40, .F. ) ;
#192 = ADVANCED_FACE ( 'NONE', ( #306 ), #142, .T. ) ;
#193 = AXIS2_PLACEMENT_3D ( 'NONE', #290, #372, #391 ) ;
#194 = APPROVAL ( #261, 'UNSPECIFIED' ) ;
#195 = CARTESIAN_POINT ( 'NONE',  ( 0.0000000000000000000, 0.0000000000000000000, 0.0000000000000000000 ) ) ;
#196 = PERSON_AND_ORGANIZATION ( #20, #361 ) ;
#197 =( NAMED_UNIT ( * ) SI_UNIT ( $, .STERADIAN. ) SOLID_ANGLE_UNIT ( ) );
#198 = DIRECTION ( 'NONE',  ( 0.0000000000000000000, 0.0000000000000000000, 1.000000000000000000 ) ) ;
#199 = VECTOR ( 'NONE', #16, 1000.000000000000000 ) ;
#200 = EDGE_CURVE ( 'NONE', #285, #144, #256, .T. ) ;
#201 = CIRCLE ( 'NONE', #24, 7.937500000000000000 ) ;
#202 = CYLINDRICAL_SURFACE ( 'NONE', #362, 3.749999999999998200 ) ;
#203 = ORIENTED_EDGE ( 'NONE', *, *, #9, .T. ) ;
#204 = CARTESIAN_POINT ( 'NONE',  ( 160.0000000000000000, 0.0000000000000000000, 5.000000000000000000 ) ) ;
#205 = APPROVAL_PERSON_ORGANIZATION ( #110, #341, #258 ) ;
#206 = DIRECTION ( 'NONE',  ( 0.0000000000000000000, 0.0000000000000000000, 1.000000000000000000 ) ) ;
#207 = CIRCLE ( 'NONE', #112, 3.174999999999999800 ) ;
#208 = EDGE_CURVE ( 'NONE', #266, #61, #273, .T. ) ;
#209 = LINE ( 'NONE', #62, #111 ) ;
#210 = ORIENTED_EDGE ( 'NONE', *, *, #399, .T. ) ;
#211 = CC_DESIGN_APPROVAL ( #194, ( #177 ) ) ;
#212 = EDGE_CURVE ( 'NONE', #144, #98, #89, .T. ) ;
#213 = DIRECTION ( 'NONE',  ( -1.000000000000000000, -0.0000000000000000000, -0.0000000000000000000 ) ) ;
#214 = ORIENTED_EDGE ( 'NONE', *, *, #71, .T. ) ;
#215 = DIRECTION ( 'NONE',  ( 0.0000000000000000000, 0.0000000000000000000, 1.000000000000000000 ) ) ;
#216 = EDGE_CURVE ( 'NONE', #283, #375, #209, .T. ) ;
#217 = ORIENTED_EDGE ( 'NONE', *, *, #56, .T. ) ;
#218 = CARTESIAN_POINT ( 'NONE',  ( 122.6755235874869100, 9.720633968232116200E-016, -7.937500000000000000 ) ) ;
#219 = DIRECTION ( 'NONE',  ( 0.0000000000000000000, 0.0000000000000000000, 1.000000000000000000 ) ) ;
#220 = LOCAL_TIME ( 13, 17, 6.000000000000000000, #257 ) ;
#221 =( LENGTH_UNIT ( ) NAMED_UNIT ( * ) SI_UNIT ( .MILLI., .METRE. ) );
#222 = CARTESIAN_POINT ( 'NONE',  ( 124.0000000000000000, 4.592425496802571000E-016, -3.749999999999996900 ) ) ;
#223 = DATE_AND_TIME ( #137, #151 ) ;
#224 = DIRECTION ( 'NONE',  ( 0.0000000000000000000, 0.0000000000000000000, -1.000000000000000000 ) ) ;
#225 = ORIENTED_EDGE ( 'NONE', *, *, #53, .F. ) ;
#226 = CARTESIAN_POINT ( 'NONE',  ( 134.0000000000000000, 0.0000000000000000000, 0.0000000000000000000 ) ) ;
#227 = CARTESIAN_POINT ( 'NONE',  ( 133.4249999999999800, 0.0000000000000000000, 3.750000000000000000 ) ) ;
#228 = DIRECTION ( 'NONE',  ( -1.000000000000000000, -0.0000000000000000000, -0.0000000000000000000 ) ) ;
#229 = DIRECTION ( 'NONE',  ( -1.000000000000000000, -0.0000000000000000000, -0.0000000000000000000 ) ) ;
#230 = AXIS2_PLACEMENT_3D ( 'NONE', #386, #15, #224 ) ;
#231 = CC_DESIGN_PERSON_AND_ORGANIZATION_ASSIGNMENT ( #371, #7, ( #177 ) ) ;
#232 = CARTESIAN_POINT ( 'NONE',  ( 160.0000000000000000, 0.0000000000000000000, 0.0000000000000000000 ) ) ;
#233 = DATE_AND_TIME ( #90, #363 ) ;
#234 = VERTEX_POINT ( 'NONE', #32 ) ;
#235 = CIRCLE ( 'NONE', #51, 5.000000000000000000 ) ;
#236 = AXIS2_PLACEMENT_3D ( 'NONE', #226, #74, #139 ) ;
#237 = ADVANCED_FACE ( 'NONE', ( #28 ), #202, .F. ) ;
#238 = ORIENTED_EDGE ( 'NONE', *, *, #200, .T. ) ;
#239 = VECTOR ( 'NONE', #96, 1000.000000000000000 ) ;
#240 = PERSON_AND_ORGANIZATION ( #20, #361 ) ;
#241 = EDGE_CURVE ( 'NONE', #234, #397, #235, .T. ) ;
#242 = PERSON_AND_ORGANIZATION ( #20, #361 ) ;
#243 = DIRECTION ( 'NONE',  ( 0.0000000000000000000, 0.0000000000000000000, 1.000000000000000000 ) ) ;
#244 = ORIENTED_EDGE ( 'NONE', *, *, #53, .T. ) ;
#245 = ORIENTED_EDGE ( 'NONE', *, *, #241, .F. ) ;
#246 = ADVANCED_FACE ( 'NONE', ( #120 ), #138, .F. ) ;
#247 = AXIS2_PLACEMENT_3D ( 'NONE', #284, #342, #314 ) ;
#248 = VERTEX_POINT ( 'NONE', #75 ) ;
#249 = CARTESIAN_POINT ( 'NONE',  ( 0.0000000000000000000, 0.0000000000000000000, 0.0000000000000000000 ) ) ;
#250 = APPLICATION_CONTEXT ( 'configuration controlled 3d designs of mechanical parts and assemblies' ) ;
#251 = AXIS2_PLACEMENT_3D ( 'NONE', #249, #332, #379 ) ;
#252 = ADVANCED_FACE ( 'NONE', ( #390 ), #364, .T. ) ;
#253 = CC_DESIGN_PERSON_AND_ORGANIZATION_ASSIGNMENT ( #385, #167, ( #177 ) ) ;
#254 = CARTESIAN_POINT ( 'NONE',  ( 160.0000000000000000, 3.888253587292846100E-016, -3.174999999999999800 ) ) ;
#255 = ORIENTED_EDGE ( 'NONE', *, *, #271, .F. ) ;
#256 = LINE ( 'NONE', #99, #239 ) ;
#257 = COORDINATED_UNIVERSAL_TIME_OFFSET ( 8, 0, .AHEAD. ) ;
#258 = APPROVAL_ROLE ( '' ) ;
#259 = DIRECTION ( 'NONE',  ( -1.000000000000000000, -0.0000000000000000000, -0.0000000000000000000 ) ) ;
#260 = LOCAL_TIME ( 13, 17, 6.000000000000000000, #84 ) ;
#261 = APPROVAL_STATUS ( 'not_yet_approved' ) ;
#262 = DIRECTION ( 'NONE',  ( -1.000000000000000000, -0.0000000000000000000, -0.0000000000000000000 ) ) ;
#263 = DIRECTION ( 'NONE',  ( -1.000000000000000000, -0.0000000000000000000, -0.0000000000000000000 ) ) ;
#264 = DIRECTION ( 'NONE',  ( -1.000000000000000000, -0.0000000000000000000, -0.0000000000000000000 ) ) ;
#265 = CARTESIAN_POINT ( 'NONE',  ( 0.0000000000000000000, 0.0000000000000000000, 0.0000000000000000000 ) ) ;
#266 = VERTEX_POINT ( 'NONE', #376 ) ;
#267 = ORIENTED_EDGE ( 'NONE', *, *, #271, .T. ) ;
#268 = ADVANCED_FACE ( 'NONE', ( #353, #373 ), #162, .F. ) ;
#269 = VECTOR ( 'NONE', #109, 1000.000000000000000 ) ;
#270 = COORDINATED_UNIVERSAL_TIME_OFFSET ( 8, 0, .AHEAD. ) ;
#271 = EDGE_CURVE ( 'NONE', #397, #234, #126, .T. ) ;
#272 = SHAPE_DEFINITION_REPRESENTATION ( #80, #333 ) ;
#273 = LINE ( 'NONE', #105, #269 ) ;
#274 = CONICAL_SURFACE ( 'NONE', #236, 3.174999999999999800, 0.7853981633974309600 ) ;
#275 = EDGE_LOOP ( 'NONE', ( #69, #400, #225, #343 ) ) ;
#276 = COORDINATED_UNIVERSAL_TIME_OFFSET ( 8, 0, .AHEAD. ) ;
#277 = VECTOR ( 'NONE', #97, 1000.000000000000000 ) ;
#278 = ORIENTED_EDGE ( 'NONE', *, *, #33, .T. ) ;
#279 = AXIS2_PLACEMENT_3D ( 'NONE', #389, #132, #119 ) ;
#280 = SECURITY_CLASSIFICATION ( '', '', #128 ) ;
#281 = APPROVAL_DATE_TIME ( #36, #341 ) ;
#282 = PERSON_AND_ORGANIZATION ( #20, #361 ) ;
#283 = VERTEX_POINT ( 'NONE', #218 ) ;
#284 = CARTESIAN_POINT ( 'NONE',  ( 160.0000000000000000, 5.000000000000000000, 0.0000000000000000000 ) ) ;
#285 = VERTEX_POINT ( 'NONE', #121 ) ;
#286 = ORIENTED_EDGE ( 'NONE', *, *, #93, .F. ) ;
#287 = EDGE_LOOP ( 'NONE', ( #183, #238, #345, #186 ) ) ;
#288 = DIRECTION ( 'NONE',  ( 0.0000000000000000000, 0.0000000000000000000, 1.000000000000000000 ) ) ;
#289 = VECTOR ( 'NONE', #298, 1000.000000000000100 ) ;
#290 = CARTESIAN_POINT ( 'NONE',  ( 0.0000000000000000000, 0.0000000000000000000, 0.0000000000000000000 ) ) ;
#291 = DIRECTION ( 'NONE',  ( 0.0000000000000000000, 0.0000000000000000000, 1.000000000000000000 ) ) ;
#292 = EDGE_CURVE ( 'NONE', #266, #357, #207, .T. ) ;
#293 = PERSON_AND_ORGANIZATION_ROLE ( 'creator' ) ;
#294 = CIRCLE ( 'NONE', #349, 3.750000000000000000 ) ;
#295 = CARTESIAN_POINT ( 'NONE',  ( 133.4249999999999800, 0.0000000000000000000, 0.0000000000000000000 ) ) ;
#296 = DIRECTION ( 'NONE',  ( 0.0000000000000000000, 0.0000000000000000000, 1.000000000000000000 ) ) ;
#297 = DIRECTION ( 'NONE',  ( 0.0000000000000000000, 0.0000000000000000000, 1.000000000000000000 ) ) ;
#298 = DIRECTION ( 'NONE',  ( -0.9969173337331278500, 9.608468044710130400E-018, -0.07845909572784512400 ) ) ;
#299 = PLANE ( 'NONE',  #230 ) ;
#300 = LOCAL_TIME ( 13, 17, 6.000000000000000000, #276 ) ;
#301 = VECTOR ( 'NONE', #175, 1000.000000000000000 ) ;
#302 = DIRECTION ( 'NONE',  ( -1.000000000000000000, -0.0000000000000000000, -0.0000000000000000000 ) ) ;
#303 = CC_DESIGN_PERSON_AND_ORGANIZATION_ASSIGNMENT ( #398, #322, ( #280 ) ) ;
#304 = CARTESIAN_POINT ( 'NONE',  ( 134.0000000000000000, 0.0000000000000000000, 0.0000000000000000000 ) ) ;
#305 = ORIENTED_EDGE ( 'NONE', *, *, #312, .F. ) ;
#306 = FACE_OUTER_BOUND ( 'NONE', #59, .T. ) ;
#307 = DATE_AND_TIME ( #133, #220 ) ;
#308 = VERTEX_POINT ( 'NONE', #45 ) ;
#309 = AXIS2_PLACEMENT_3D ( 'NONE', #106, #387, #92 ) ;
#310 = ORIENTED_EDGE ( 'NONE', *, *, #369, .F. ) ;
#311 = CONICAL_SURFACE ( 'NONE', #402, 5.000000000000000000, 0.07853981633974502200 ) ;
#312 = EDGE_CURVE ( 'NONE', #397, #283, #378, .T. ) ;
#313 = APPROVAL_PERSON_ORGANIZATION ( #240, #194, #37 ) ;
#314 = DIRECTION ( 'NONE',  ( -0.0000000000000000000, 0.0000000000000000000, 1.000000000000000000 ) ) ;
#315 = EDGE_LOOP ( 'NONE', ( #190, #85, #171, #339 ) ) ;
#316 = MECHANICAL_CONTEXT ( 'NONE', #94, 'mechanical' ) ;
#317 = CARTESIAN_POINT ( 'NONE',  ( 0.0000000000000000000, 0.0000000000000000000, 7.937500000000000000 ) ) ;
#318 = AXIS2_PLACEMENT_3D ( 'NONE', #50, #49, #41 ) ;
#319 = CC_DESIGN_DATE_AND_TIME_ASSIGNMENT ( #233, #103, ( #280 ) ) ;
#320 = DIRECTION ( 'NONE',  ( 0.0000000000000000000, 0.0000000000000000000, 1.000000000000000000 ) ) ;
#321 = ORIENTED_EDGE ( 'NONE', *, *, #147, .F. ) ;
#322 = PERSON_AND_ORGANIZATION_ROLE ( 'classification_officer' ) ;
#323 = APPROVAL_STATUS ( 'not_yet_approved' ) ;
#324 = DIRECTION ( 'NONE',  ( 0.0000000000000000000, 0.0000000000000000000, 1.000000000000000000 ) ) ;
#325 = CARTESIAN_POINT ( 'NONE',  ( 124.0000000000000000, 0.0000000000000000000, 3.749999999999996900 ) ) ;
#326 = CLOSED_SHELL ( 'NONE', ( #191, #148, #394, #164, #252, #143, #189, #108, #268, #246, #237, #192, #174 ) ) ;
#327 = CARTESIAN_POINT ( 'NONE',  ( 122.6755235874869100, 0.0000000000000000000, 0.0000000000000000000 ) ) ;
#328 = DIRECTION ( 'NONE',  ( 0.0000000000000000000, 0.0000000000000000000, 1.000000000000000000 ) ) ;
#329 = ORIENTED_EDGE ( 'NONE', *, *, #399, .F. ) ;
#330 = DIRECTION ( 'NONE',  ( 0.0000000000000000000, 0.0000000000000000000, 1.000000000000000000 ) ) ;
#331 = CARTESIAN_POINT ( 'NONE',  ( 160.0000000000000000, 0.0000000000000000000, 0.0000000000000000000 ) ) ;
#332 = DIRECTION ( 'NONE',  ( -1.000000000000000000, -0.0000000000000000000, -0.0000000000000000000 ) ) ;
#333 = ADVANCED_BREP_SHAPE_REPRESENTATION ( 'STP-86066', ( #65, #309 ), #125 ) ;
#334 = DIRECTION ( 'NONE',  ( -1.000000000000000000, -0.0000000000000000000, -0.0000000000000000000 ) ) ;
#335 = ORIENTED_EDGE ( 'NONE', *, *, #81, .T. ) ;
#336 = DIRECTION ( 'NONE',  ( -1.000000000000000000, -0.0000000000000000000, -0.0000000000000000000 ) ) ;
#337 = EDGE_CURVE ( 'NONE', #308, #266, #347, .T. ) ;
#338 = APPROVAL_DATE_TIME ( #223, #157 ) ;
#339 = ORIENTED_EDGE ( 'NONE', *, *, #33, .F. ) ;
#340 = AXIS2_PLACEMENT_3D ( 'NONE', #265, #213, #206 ) ;
#341 = APPROVAL ( #68, 'UNSPECIFIED' ) ;
#342 = DIRECTION ( 'NONE',  ( -1.000000000000000000, 0.0000000000000000000, -0.0000000000000000000 ) ) ;
#343 = ORIENTED_EDGE ( 'NONE', *, *, #81, .F. ) ;
#344 = PERSON_AND_ORGANIZATION_ROLE ( 'design_owner' ) ;
#345 = ORIENTED_EDGE ( 'NONE', *, *, #212, .T. ) ;
#346 = APPROVAL_DATE_TIME ( #307, #194 ) ;
#347 = LINE ( 'NONE', #392, #367 ) ;
#348 = DIRECTION ( 'NONE',  ( -1.000000000000000000, -0.0000000000000000000, -0.0000000000000000000 ) ) ;
#349 = AXIS2_PLACEMENT_3D ( 'NONE', #44, #64, #198 ) ;
#350 = CARTESIAN_POINT ( 'NONE',  ( 0.0000000000000000000, 0.0000000000000000000, 0.0000000000000000000 ) ) ;
#351 = CARTESIAN_POINT ( 'NONE',  ( 0.0000000000000000000, 0.0000000000000000000, 0.0000000000000000000 ) ) ;
#352 = DIRECTION ( 'NONE',  ( 0.0000000000000000000, 0.0000000000000000000, 1.000000000000000000 ) ) ;
#353 = FACE_BOUND ( 'NONE', #76, .T. ) ;
#354 = CARTESIAN_POINT ( 'NONE',  ( 134.0000000000000000, 0.0000000000000000000, 0.0000000000000000000 ) ) ;
#355 = ORIENTED_EDGE ( 'NONE', *, *, #208, .T. ) ;
#356 = DIRECTION ( 'NONE',  ( -1.000000000000000000, -0.0000000000000000000, -0.0000000000000000000 ) ) ;
#357 = VERTEX_POINT ( 'NONE', #43 ) ;
#358 = ORIENTED_EDGE ( 'NONE', *, *, #369, .T. ) ;
#359 = AXIS2_PLACEMENT_3D ( 'NONE', #66, #11, #78 ) ;
#360 = CC_DESIGN_APPROVAL ( #341, ( #280 ) ) ;
#361 = ORGANIZATION ( 'UNSPECIFIED', 'UNSPECIFIED', '' ) ;
#362 = AXIS2_PLACEMENT_3D ( 'NONE', #73, #30, #67 ) ;
#363 = LOCAL_TIME ( 13, 17, 6.000000000000000000, #270 ) ;
#364 = CYLINDRICAL_SURFACE ( 'NONE', #146, 7.937500000000000000 ) ;
#365 = AXIS2_PLACEMENT_3D ( 'NONE', #295, #263, #39 ) ;
#366 = CIRCLE ( 'NONE', #158, 3.174999999999999800 ) ;
#367 = VECTOR ( 'NONE', #57, 1000.000000000000000 ) ;
#368 = UNCERTAINTY_MEASURE_WITH_UNIT (LENGTH_MEASURE( 1.000000000000000100E-005 ), #221, 'distance_accuracy_value', 'NONE');
#369 = EDGE_CURVE ( 'NONE', #283, #248, #116, .T. ) ;
#370 = ORIENTED_EDGE ( 'NONE', *, *, #337, .F. ) ;
#371 = PERSON_AND_ORGANIZATION ( #20, #361 ) ;
#372 = DIRECTION ( 'NONE',  ( -1.000000000000000000, -0.0000000000000000000, -0.0000000000000000000 ) ) ;
#373 = FACE_OUTER_BOUND ( 'NONE', #161, .T. ) ;
#374 = ORIENTED_EDGE ( 'NONE', *, *, #71, .F. ) ;
#375 = VERTEX_POINT ( 'NONE', #172 ) ;
#376 = CARTESIAN_POINT ( 'NONE',  ( 134.0000000000000000, 0.0000000000000000000, 3.174999999999999800 ) ) ;
#377 = CARTESIAN_POINT ( 'NONE',  ( 160.0000000000000000, 0.0000000000000000000, 0.0000000000000000000 ) ) ;
#378 = LINE ( 'NONE', #188, #289 ) ;
#379 = DIRECTION ( 'NONE',  ( 0.0000000000000000000, 0.0000000000000000000, 1.000000000000000000 ) ) ;
#380 = AXIS2_PLACEMENT_3D ( 'NONE', #377, #336, #320 ) ;
#381 = CC_DESIGN_SECURITY_CLASSIFICATION ( #280, ( #177 ) ) ;
#382 = CARTESIAN_POINT ( 'NONE',  ( 160.0000000000000000, 0.0000000000000000000, 0.0000000000000000000 ) ) ;
#383 = CARTESIAN_POINT ( 'NONE',  ( 124.0000000000000000, 0.0000000000000000000, 0.0000000000000000000 ) ) ;
#384 = CYLINDRICAL_SURFACE ( 'NONE', #193, 7.937500000000000000 ) ;
#385 = PERSON_AND_ORGANIZATION ( #20, #361 ) ;
#386 = CARTESIAN_POINT ( 'NONE',  ( 0.0000000000000000000, 7.937500000000000000, 0.0000000000000000000 ) ) ;
#387 = DIRECTION ( 'NONE',  ( 0.0000000000000000000, 0.0000000000000000000, 1.000000000000000000 ) ) ;
#388 = COORDINATED_UNIVERSAL_TIME_OFFSET ( 8, 0, .AHEAD. ) ;
#389 = CARTESIAN_POINT ( 'NONE',  ( 124.0000000000000000, 3.749999999999996900, 0.0000000000000000000 ) ) ;
#390 = FACE_OUTER_BOUND ( 'NONE', #275, .T. ) ;
#391 = DIRECTION ( 'NONE',  ( 0.0000000000000000000, 0.0000000000000000000, 1.000000000000000000 ) ) ;
#392 = CARTESIAN_POINT ( 'NONE',  ( 0.0000000000000000000, 0.0000000000000000000, 3.174999999999999800 ) ) ;
#393 = FACE_OUTER_BOUND ( 'NONE', #86, .T. ) ;
#394 = ADVANCED_FACE ( 'NONE', ( #55 ), #274, .F. ) ;
#395 = CARTESIAN_POINT ( 'NONE',  ( 0.0000000000000000000, 0.0000000000000000000, 3.749999999999998200 ) ) ;
#396 = AXIS2_PLACEMENT_3D ( 'NONE', #35, #6, #288 ) ;
#397 = VERTEX_POINT ( 'NONE', #42 ) ;
#398 = PERSON_AND_ORGANIZATION ( #20, #361 ) ;
#399 = EDGE_CURVE ( 'NONE', #375, #88, #201, .T. ) ;
#400 = ORIENTED_EDGE ( 'NONE', *, *, #216, .T. ) ;
#401 = EDGE_CURVE ( 'NONE', #285, #61, #21, .T. ) ;
#402 = AXIS2_PLACEMENT_3D ( 'NONE', #232, #228, #219 ) ;
#403 = PRODUCT_RELATED_PRODUCT_CATEGORY ( 'detail', '', ( #91 ) ) ;
#404 = ORIENTED_EDGE ( 'NONE', *, *, #27, .T. ) ;
#405 = CYLINDRICAL_SURFACE ( 'NONE', #251, 3.174999999999999800 ) ;
ENDSEC;
END-ISO-10303-21;
