ISO-10303-21;
HEADER;
FILE_DESCRIPTION (( 'STEP AP203' ),
    '1' );
FILE_NAME ('STP-86064.STEP',
    '2017-02-10T05:16:52',
    ( 'user' ),
    ( '' ),
    'SwSTEP 2.0',
    'SolidWorks 2015',
    '' );
FILE_SCHEMA (( 'CONFIG_CONTROL_DESIGN' ));
ENDSEC;

DATA;
#1 = VECTOR ( 'NONE', #35, 1000.000000000000000 ) ;
#2 = DIRECTION ( 'NONE',  ( 0.0000000000000000000, 0.0000000000000000000, 1.000000000000000000 ) ) ;
#3 = DIRECTION ( 'NONE',  ( 0.0000000000000000000, 0.0000000000000000000, 1.000000000000000000 ) ) ;
#4 = EDGE_LOOP ( 'NONE', ( #390, #308 ) ) ;
#5 = CALENDAR_DATE ( 2017, 10, 2 ) ;
#6 = EDGE_LOOP ( 'NONE', ( #383, #223 ) ) ;
#7 = DIRECTION ( 'NONE',  ( -1.000000000000000000, -0.0000000000000000000, -0.0000000000000000000 ) ) ;
#8 = CARTESIAN_POINT ( 'NONE',  ( 0.0000000000000000000, 0.0000000000000000000, 0.0000000000000000000 ) ) ;
#9 = AXIS2_PLACEMENT_3D ( 'NONE', #290, #294, #266 ) ;
#10 = CC_DESIGN_APPROVAL ( #384, ( #366 ) ) ;
#11 = CARTESIAN_POINT ( 'NONE',  ( 0.0000000000000000000, 0.0000000000000000000, 7.937500000000000000 ) ) ;
#12 = EDGE_LOOP ( 'NONE', ( #230, #386, #356, #19 ) ) ;
#13 = LINE ( 'NONE', #11, #1 ) ;
#14 = EDGE_CURVE ( 'NONE', #30, #271, #242, .T. ) ;
#15 = EDGE_LOOP ( 'NONE', ( #154, #397, #379, #184 ) ) ;
#16 = DATE_AND_TIME ( #5, #186 ) ;
#17 = ORIENTED_EDGE ( 'NONE', *, *, #14, .F. ) ;
#18 = CIRCLE ( 'NONE', #189, 2.381500000000000000 ) ;
#19 = ORIENTED_EDGE ( 'NONE', *, *, #49, .F. ) ;
#20 = EDGE_CURVE ( 'NONE', #318, #250, #84, .T. ) ;
#21 = DATE_AND_TIME ( #34, #123 ) ;
#22 = CARTESIAN_POINT ( 'NONE',  ( 0.0000000000000000000, 0.0000000000000000000, 0.0000000000000000000 ) ) ;
#23 = SHAPE_DEFINITION_REPRESENTATION ( #226, #394 ) ;
#24 = AXIS2_PLACEMENT_3D ( 'NONE', #25, #39, #75 ) ;
#25 = CARTESIAN_POINT ( 'NONE',  ( 0.0000000000000000000, 0.0000000000000000000, 0.0000000000000000000 ) ) ;
#26 = FACE_OUTER_BOUND ( 'NONE', #50, .T. ) ;
#27 = CC_DESIGN_PERSON_AND_ORGANIZATION_ASSIGNMENT ( #36, #368, ( #366 ) ) ;
#28 = FACE_BOUND ( 'NONE', #270, .T. ) ;
#29 = EDGE_CURVE ( 'NONE', #130, #263, #117, .T. ) ;
#30 = VERTEX_POINT ( 'NONE', #207 ) ;
#31 = MECHANICAL_CONTEXT ( 'NONE', #132, 'mechanical' ) ;
#32 = CARTESIAN_POINT ( 'NONE',  ( 150.0000000000000000, 0.0000000000000000000, 2.381500000000000000 ) ) ;
#33 =( NAMED_UNIT ( * ) PLANE_ANGLE_UNIT ( ) SI_UNIT ( $, .RADIAN. ) );
#34 = CALENDAR_DATE ( 2017, 10, 2 ) ;
#35 = DIRECTION ( 'NONE',  ( -1.000000000000000000, -0.0000000000000000000, -0.0000000000000000000 ) ) ;
#36 = PERSON_AND_ORGANIZATION ( #124, #127 ) ;
#37 = EDGE_CURVE ( 'NONE', #148, #130, #185, .T. ) ;
#38 = DIRECTION ( 'NONE',  ( 0.0000000000000000000, 0.0000000000000000000, 1.000000000000000000 ) ) ;
#39 = DIRECTION ( 'NONE',  ( -1.000000000000000000, -0.0000000000000000000, -0.0000000000000000000 ) ) ;
#40 = CIRCLE ( 'NONE', #100, 2.381500000000000000 ) ;
#41 = DIRECTION ( 'NONE',  ( -0.0000000000000000000, 0.0000000000000000000, 1.000000000000000000 ) ) ;
#42 = FACE_OUTER_BOUND ( 'NONE', #295, .T. ) ;
#43 = ORIENTED_EDGE ( 'NONE', *, *, #86, .F. ) ;
#44 = DIRECTION ( 'NONE',  ( -1.000000000000000000, -0.0000000000000000000, -0.0000000000000000000 ) ) ;
#45 = COORDINATED_UNIVERSAL_TIME_OFFSET ( 8, 0, .AHEAD. ) ;
#46 = EDGE_LOOP ( 'NONE', ( #17, #307, #369, #170 ) ) ;
#47 = ADVANCED_FACE ( 'NONE', ( #321, #169 ), #210, .F. ) ;
#48 = AXIS2_PLACEMENT_3D ( 'NONE', #175, #171, #167 ) ;
#49 = EDGE_CURVE ( 'NONE', #135, #245, #276, .T. ) ;
#50 = EDGE_LOOP ( 'NONE', ( #70, #88, #304, #149 ) ) ;
#51 = CC_DESIGN_DATE_AND_TIME_ASSIGNMENT ( #16, #71, ( #366 ) ) ;
#52 = ORIENTED_EDGE ( 'NONE', *, *, #172, .T. ) ;
#53 = ADVANCED_FACE ( 'NONE', ( #287 ), #91, .T. ) ;
#54 = ADVANCED_FACE ( 'NONE', ( #156 ), #69, .F. ) ;
#55 = ADVANCED_FACE ( 'NONE', ( #143 ), #310, .T. ) ;
#56 = ORIENTED_EDGE ( 'NONE', *, *, #20, .F. ) ;
#57 = CARTESIAN_POINT ( 'NONE',  ( 122.6755235874869100, 9.720633968232116200E-016, -7.937500000000000000 ) ) ;
#58 = COORDINATED_UNIVERSAL_TIME_OFFSET ( 8, 0, .AHEAD. ) ;
#59 = EDGE_CURVE ( 'NONE', #245, #250, #374, .T. ) ;
#60 = DIRECTION ( 'NONE',  ( -1.000000000000000000, -0.0000000000000000000, -0.0000000000000000000 ) ) ;
#61 = DIRECTION ( 'NONE',  ( -0.7071067811865463500, 0.0000000000000000000, 0.7071067811865487900 ) ) ;
#62 = CLOSED_SHELL ( 'NONE', ( #90, #89, #77, #55, #215, #93, #53, #73, #47, #259, #54, #80 ) ) ;
#63 = PERSON_AND_ORGANIZATION ( #124, #127 ) ;
#64 = CARTESIAN_POINT ( 'NONE',  ( 160.0000000000000000, 0.0000000000000000000, 0.0000000000000000000 ) ) ;
#65 = CARTESIAN_POINT ( 'NONE',  ( 0.0000000000000000000, 9.720633968232116200E-016, -7.937500000000000000 ) ) ;
#66 = APPROVAL_ROLE ( '' ) ;
#67 = CARTESIAN_POINT ( 'NONE',  ( 148.6314999999999900, 0.0000000000000000000, 3.749999999999999600 ) ) ;
#68 = DIRECTION ( 'NONE',  ( 0.0000000000000000000, 0.0000000000000000000, 1.000000000000000000 ) ) ;
#69 = CONICAL_SURFACE ( 'NONE', #239, 2.381500000000000000, 0.7853981633974500600 ) ;
#70 = ORIENTED_EDGE ( 'NONE', *, *, #365, .F. ) ;
#71 = DATE_TIME_ROLE ( 'creation_date' ) ;
#72 = APPROVAL_PERSON_ORGANIZATION ( #151, #384, #66 ) ;
#73 = ADVANCED_FACE ( 'NONE', ( #42 ), #355, .T. ) ;
#74 = PERSON_AND_ORGANIZATION_ROLE ( 'creator' ) ;
#75 = DIRECTION ( 'NONE',  ( 0.0000000000000000000, 0.0000000000000000000, 1.000000000000000000 ) ) ;
#76 = VECTOR ( 'NONE', #131, 1000.000000000000000 ) ;
#77 = ADVANCED_FACE ( 'NONE', ( #104 ), #341, .F. ) ;
#78 = ORIENTED_EDGE ( 'NONE', *, *, #387, .T. ) ;
#79 = AXIS2_PLACEMENT_3D ( 'NONE', #159, #141, #138 ) ;
#80 = ADVANCED_FACE ( 'NONE', ( #317 ), #109, .F. ) ;
#81 = CARTESIAN_POINT ( 'NONE',  ( 148.6314999999999900, 0.0000000000000000000, 0.0000000000000000000 ) ) ;
#82 = PRODUCT_DEFINITION_FORMATION_WITH_SPECIFIED_SOURCE ( 'ANY', '', #363, .NOT_KNOWN. ) ;
#83 = CARTESIAN_POINT ( 'NONE',  ( 0.0000000000000000000, 0.0000000000000000000, 3.750000000000000000 ) ) ;
#84 = CIRCLE ( 'NONE', #125, 3.750000000000000000 ) ;
#85 = VERTEX_POINT ( 'NONE', #313 ) ;
#86 = EDGE_CURVE ( 'NONE', #375, #331, #359, .T. ) ;
#87 = CIRCLE ( 'NONE', #241, 7.937500000000000000 ) ;
#88 = ORIENTED_EDGE ( 'NONE', *, *, #172, .F. ) ;
#89 = ADVANCED_FACE ( 'NONE', ( #336 ), #327, .F. ) ;
#90 = ADVANCED_FACE ( 'NONE', ( #183 ), #274, .F. ) ;
#91 = CYLINDRICAL_SURFACE ( 'NONE', #253, 7.937500000000000000 ) ;
#92 = ORIENTED_EDGE ( 'NONE', *, *, #261, .T. ) ;
#93 = ADVANCED_FACE ( 'NONE', ( #28, #153 ), #283, .F. ) ;
#94 = DIRECTION ( 'NONE',  ( -1.000000000000000000, -0.0000000000000000000, -0.0000000000000000000 ) ) ;
#95 = DIRECTION ( 'NONE',  ( 0.0000000000000000000, 0.0000000000000000000, 1.000000000000000000 ) ) ;
#96 = VECTOR ( 'NONE', #319, 1000.000000000000100 ) ;
#97 = APPROVAL_DATE_TIME ( #337, #384 ) ;
#98 = ORIENTED_EDGE ( 'NONE', *, *, #261, .F. ) ;
#99 = CARTESIAN_POINT ( 'NONE',  ( 160.0000000000000000, 0.0000000000000000000, 0.0000000000000000000 ) ) ;
#100 = AXIS2_PLACEMENT_3D ( 'NONE', #102, #202, #209 ) ;
#101 = APPROVAL ( #398, 'UNSPECIFIED' ) ;
#102 = CARTESIAN_POINT ( 'NONE',  ( 150.0000000000000000, 0.0000000000000000000, 0.0000000000000000000 ) ) ;
#103 = CALENDAR_DATE ( 2017, 10, 2 ) ;
#104 = FACE_OUTER_BOUND ( 'NONE', #15, .T. ) ;
#105 = APPLICATION_PROTOCOL_DEFINITION ( 'international standard', 'config_control_design', 1994, #291 ) ;
#106 = LINE ( 'NONE', #136, #76 ) ;
#107 = SECURITY_CLASSIFICATION_LEVEL ( 'unclassified' ) ;
#108 = AXIS2_PLACEMENT_3D ( 'NONE', #367, #44, #389 ) ;
#109 = CYLINDRICAL_SURFACE ( 'NONE', #352, 2.381500000000000000 ) ;
#110 = ORIENTED_EDGE ( 'NONE', *, *, #144, .F. ) ;
#111 = CARTESIAN_POINT ( 'NONE',  ( 150.0000000000000000, 0.0000000000000000000, 0.0000000000000000000 ) ) ;
#112 = CARTESIAN_POINT ( 'NONE',  ( 122.6755235874869100, 0.0000000000000000000, 0.0000000000000000000 ) ) ;
#113 = DIRECTION ( 'NONE',  ( 0.0000000000000000000, 0.0000000000000000000, 1.000000000000000000 ) ) ;
#114 = CARTESIAN_POINT ( 'NONE',  ( 148.6314999999999900, 4.592425496802573000E-016, -3.749999999999999600 ) ) ;
#115 = DIRECTION ( 'NONE',  ( -1.000000000000000000, -0.0000000000000000000, -0.0000000000000000000 ) ) ;
#116 = DIRECTION ( 'NONE',  ( 0.0000000000000000000, 0.0000000000000000000, 1.000000000000000000 ) ) ;
#117 = LINE ( 'NONE', #182, #96 ) ;
#118 = ORIENTED_EDGE ( 'NONE', *, *, #284, .T. ) ;
#119 = AXIS2_PLACEMENT_3D ( 'NONE', #64, #60, #38 ) ;
#120 = LINE ( 'NONE', #208, #160 ) ;
#121 = CC_DESIGN_APPROVAL ( #101, ( #82 ) ) ;
#122 = ORIENTED_EDGE ( 'NONE', *, *, #217, .F. ) ;
#123 = LOCAL_TIME ( 13, 16, 52.00000000000000000, #45 ) ;
#124 = PERSON ( 'UNSPECIFIED', 'UNSPECIFIED', 'UNSPECIFIED', ('UNSPECIFIED'), ('UNSPECIFIED'), ('UNSPECIFIED') ) ;
#125 = AXIS2_PLACEMENT_3D ( 'NONE', #251, #343, #364 ) ;
#126 = CARTESIAN_POINT ( 'NONE',  ( 0.0000000000000000000, 0.0000000000000000000, 0.0000000000000000000 ) ) ;
#127 = ORGANIZATION ( 'UNSPECIFIED', 'UNSPECIFIED', '' ) ;
#128 = DIRECTION ( 'NONE',  ( -1.000000000000000000, -0.0000000000000000000, -0.0000000000000000000 ) ) ;
#129 = DIRECTION ( 'NONE',  ( -1.000000000000000000, -0.0000000000000000000, -0.0000000000000000000 ) ) ;
#130 = VERTEX_POINT ( 'NONE', #264 ) ;
#131 = DIRECTION ( 'NONE',  ( -1.000000000000000000, -0.0000000000000000000, -0.0000000000000000000 ) ) ;
#132 = APPLICATION_CONTEXT ( 'configuration controlled 3d designs of mechanical parts and assemblies' ) ;
#133 = CARTESIAN_POINT ( 'NONE',  ( 0.0000000000000000000, 9.720633968232116200E-016, -7.937500000000000000 ) ) ;
#134 = CARTESIAN_POINT ( 'NONE',  ( 160.0000000000000000, 5.000000000000000000, 0.0000000000000000000 ) ) ;
#135 = VERTEX_POINT ( 'NONE', #273 ) ;
#136 = CARTESIAN_POINT ( 'NONE',  ( 0.0000000000000000000, 2.916496352169421600E-016, -2.381500000000000000 ) ) ;
#137 = DATE_TIME_ROLE ( 'classification_date' ) ;
#138 = DIRECTION ( 'NONE',  ( 0.0000000000000000000, 0.0000000000000000000, 1.000000000000000000 ) ) ;
#139 = DIRECTION ( 'NONE',  ( -1.000000000000000000, -0.0000000000000000000, -0.0000000000000000000 ) ) ;
#140 = LINE ( 'NONE', #133, #177 ) ;
#141 = DIRECTION ( 'NONE',  ( -1.000000000000000000, -0.0000000000000000000, -0.0000000000000000000 ) ) ;
#142 = AXIS2_PLACEMENT_3D ( 'NONE', #126, #94, #166 ) ;
#143 = FACE_OUTER_BOUND ( 'NONE', #187, .T. ) ;
#144 = EDGE_CURVE ( 'NONE', #193, #243, #335, .T. ) ;
#145 = ORIENTED_EDGE ( 'NONE', *, *, #150, .F. ) ;
#146 = CALENDAR_DATE ( 2017, 10, 2 ) ;
#147 = CC_DESIGN_PERSON_AND_ORGANIZATION_ASSIGNMENT ( #188, #74, ( #82 ) ) ;
#148 = VERTEX_POINT ( 'NONE', #257 ) ;
#149 = ORIENTED_EDGE ( 'NONE', *, *, #150, .T. ) ;
#150 = EDGE_CURVE ( 'NONE', #250, #318, #211, .T. ) ;
#151 = PERSON_AND_ORGANIZATION ( #124, #127 ) ;
#152 = AXIS2_PLACEMENT_3D ( 'NONE', #99, #173, #181 ) ;
#153 = FACE_OUTER_BOUND ( 'NONE', #4, .T. ) ;
#154 = ORIENTED_EDGE ( 'NONE', *, *, #329, .F. ) ;
#155 = LOCAL_TIME ( 13, 16, 52.00000000000000000, #376 ) ;
#156 = FACE_OUTER_BOUND ( 'NONE', #338, .T. ) ;
#157 = ORIENTED_EDGE ( 'NONE', *, *, #37, .T. ) ;
#158 = DIRECTION ( 'NONE',  ( 0.0000000000000000000, 0.0000000000000000000, 1.000000000000000000 ) ) ;
#159 = CARTESIAN_POINT ( 'NONE',  ( 122.6755235874869100, 0.0000000000000000000, 0.0000000000000000000 ) ) ;
#160 = VECTOR ( 'NONE', #139, 1000.000000000000000 ) ;
#161 = CARTESIAN_POINT ( 'NONE',  ( 0.0000000000000000000, 0.0000000000000000000, 7.937500000000000000 ) ) ;
#162 = ORIENTED_EDGE ( 'NONE', *, *, #371, .T. ) ;
#163 = AXIS2_PLACEMENT_3D ( 'NONE', #236, #332, #301 ) ;
#164 = CARTESIAN_POINT ( 'NONE',  ( 0.0000000000000000000, 4.592425496802574000E-016, -3.750000000000000000 ) ) ;
#165 = CC_DESIGN_PERSON_AND_ORGANIZATION_ASSIGNMENT ( #218, #297, ( #82 ) ) ;
#166 = DIRECTION ( 'NONE',  ( 0.0000000000000000000, 0.0000000000000000000, 1.000000000000000000 ) ) ;
#167 = DIRECTION ( 'NONE',  ( 0.0000000000000000000, 0.0000000000000000000, 1.000000000000000000 ) ) ;
#168 = APPLICATION_PROTOCOL_DEFINITION ( 'international standard', 'config_control_design', 1994, #132 ) ;
#169 = FACE_OUTER_BOUND ( 'NONE', #361, .T. ) ;
#170 = ORIENTED_EDGE ( 'NONE', *, *, #387, .F. ) ;
#171 = DIRECTION ( 'NONE',  ( -1.000000000000000000, -0.0000000000000000000, -0.0000000000000000000 ) ) ;
#172 = EDGE_CURVE ( 'NONE', #245, #331, #388, .T. ) ;
#173 = DIRECTION ( 'NONE',  ( -1.000000000000000000, -0.0000000000000000000, -0.0000000000000000000 ) ) ;
#174 = EDGE_CURVE ( 'NONE', #263, #85, #247, .T. ) ;
#175 = CARTESIAN_POINT ( 'NONE',  ( 148.6314999999999900, 0.0000000000000000000, 0.0000000000000000000 ) ) ;
#176 = APPROVAL_ROLE ( '' ) ;
#177 = VECTOR ( 'NONE', #129, 1000.000000000000000 ) ;
#178 = VECTOR ( 'NONE', #61, 1000.000000000000000 ) ;
#179 = ORIENTED_EDGE ( 'NONE', *, *, #258, .F. ) ;
#180 = DIRECTION ( 'NONE',  ( -1.000000000000000000, 0.0000000000000000000, -0.0000000000000000000 ) ) ;
#181 = DIRECTION ( 'NONE',  ( 0.0000000000000000000, 0.0000000000000000000, 1.000000000000000000 ) ) ;
#182 = CARTESIAN_POINT ( 'NONE',  ( 160.0000000000000000, 6.123233995736766300E-016, -5.000000000000000000 ) ) ;
#183 = FACE_OUTER_BOUND ( 'NONE', #46, .T. ) ;
#184 = ORIENTED_EDGE ( 'NONE', *, *, #59, .F. ) ;
#185 = CIRCLE ( 'NONE', #152, 5.000000000000000000 ) ;
#186 = LOCAL_TIME ( 13, 16, 52.00000000000000000, #278 ) ;
#187 = EDGE_LOOP ( 'NONE', ( #157, #345, #323, #98 ) ) ;
#188 = PERSON_AND_ORGANIZATION ( #124, #127 ) ;
#189 = AXIS2_PLACEMENT_3D ( 'NONE', #111, #128, #158 ) ;
#190 = MANIFOLD_SOLID_BREP ( '°£®Æ-±ÛÂà1', #62 ) ;
#191 = SECURITY_CLASSIFICATION ( '', '', #107 ) ;
#192 = EDGE_LOOP ( 'NONE', ( #342, #122, #78, #277 ) ) ;
#193 = VERTEX_POINT ( 'NONE', #161 ) ;
#194 = DIRECTION ( 'NONE',  ( -1.000000000000000000, -0.0000000000000000000, -0.0000000000000000000 ) ) ;
#195 = EDGE_CURVE ( 'NONE', #30, #375, #106, .T. ) ;
#196 = FACE_OUTER_BOUND ( 'NONE', #229, .T. ) ;
#197 = AXIS2_PLACEMENT_3D ( 'NONE', #254, #194, #396 ) ;
#198 = AXIS2_PLACEMENT_3D ( 'NONE', #81, #303, #116 ) ;
#199 = DIRECTION ( 'NONE',  ( -1.000000000000000000, -0.0000000000000000000, -0.0000000000000000000 ) ) ;
#200 = VECTOR ( 'NONE', #225, 1000.000000000000000 ) ;
#201 = DIRECTION ( 'NONE',  ( 0.0000000000000000000, 0.0000000000000000000, 1.000000000000000000 ) ) ;
#202 = DIRECTION ( 'NONE',  ( -1.000000000000000000, -0.0000000000000000000, -0.0000000000000000000 ) ) ;
#203 = ORIENTED_EDGE ( 'NONE', *, *, #49, .T. ) ;
#204 = EDGE_CURVE ( 'NONE', #263, #243, #140, .T. ) ;
#205 =( NAMED_UNIT ( * ) SI_UNIT ( $, .STERADIAN. ) SOLID_ANGLE_UNIT ( ) );
#206 = DIRECTION ( 'NONE',  ( -1.000000000000000000, -0.0000000000000000000, -0.0000000000000000000 ) ) ;
#207 = CARTESIAN_POINT ( 'NONE',  ( 160.0000000000000000, 2.916496352169421600E-016, -2.381500000000000000 ) ) ;
#208 = CARTESIAN_POINT ( 'NONE',  ( 0.0000000000000000000, 0.0000000000000000000, 2.381500000000000000 ) ) ;
#209 = DIRECTION ( 'NONE',  ( 0.0000000000000000000, 0.0000000000000000000, 1.000000000000000000 ) ) ;
#210 = PLANE ( 'NONE',  #219 ) ;
#211 = CIRCLE ( 'NONE', #24, 3.750000000000000000 ) ;
#212 = AXIS2_PLACEMENT_3D ( 'NONE', #22, #206, #2 ) ;
#213 = CC_DESIGN_PERSON_AND_ORGANIZATION_ASSIGNMENT ( #298, #326, ( #191 ) ) ;
#214 = ORIENTED_EDGE ( 'NONE', *, *, #258, .T. ) ;
#215 = ADVANCED_FACE ( 'NONE', ( #196 ), #358, .T. ) ;
#216 = COORDINATED_UNIVERSAL_TIME_OFFSET ( 8, 0, .AHEAD. ) ;
#217 = EDGE_CURVE ( 'NONE', #271, #30, #347, .T. ) ;
#218 = PERSON_AND_ORGANIZATION ( #124, #127 ) ;
#219 = AXIS2_PLACEMENT_3D ( 'NONE', #134, #180, #41 ) ;
#220 = AXIS2_PLACEMENT_3D ( 'NONE', #112, #372, #238 ) ;
#221 = VECTOR ( 'NONE', #228, 1000.000000000000100 ) ;
#222 = ORIENTED_EDGE ( 'NONE', *, *, #174, .T. ) ;
#223 = ORIENTED_EDGE ( 'NONE', *, *, #14, .T. ) ;
#224 = DIRECTION ( 'NONE',  ( -1.000000000000000000, -0.0000000000000000000, -0.0000000000000000000 ) ) ;
#225 = DIRECTION ( 'NONE',  ( -1.000000000000000000, -0.0000000000000000000, -0.0000000000000000000 ) ) ;
#226 = PRODUCT_DEFINITION_SHAPE ( 'NONE', 'NONE',  #366 ) ;
#227 = CARTESIAN_POINT ( 'NONE',  ( 0.0000000000000000000, 0.0000000000000000000, 0.0000000000000000000 ) ) ;
#228 = DIRECTION ( 'NONE',  ( -0.9969173337331278500, 0.0000000000000000000, 0.07845909572784512400 ) ) ;
#229 = EDGE_LOOP ( 'NONE', ( #162, #248, #110, #179 ) ) ;
#230 = ORIENTED_EDGE ( 'NONE', *, *, #246, .F. ) ;
#231 = APPROVAL_PERSON_ORGANIZATION ( #63, #101, #267 ) ;
#232 = CARTESIAN_POINT ( 'NONE',  ( 160.0000000000000000, 0.0000000000000000000, 5.000000000000000000 ) ) ;
#233 = CC_DESIGN_DATE_AND_TIME_ASSIGNMENT ( #21, #137, ( #191 ) ) ;
#234 =( LENGTH_UNIT ( ) NAMED_UNIT ( * ) SI_UNIT ( .MILLI., .METRE. ) );
#235 = ORIENTED_EDGE ( 'NONE', *, *, #269, .F. ) ;
#236 = CARTESIAN_POINT ( 'NONE',  ( 160.0000000000000000, 0.0000000000000000000, 0.0000000000000000000 ) ) ;
#237 = LOCAL_TIME ( 13, 16, 52.00000000000000000, #58 ) ;
#238 = DIRECTION ( 'NONE',  ( 0.0000000000000000000, 0.0000000000000000000, 1.000000000000000000 ) ) ;
#239 = AXIS2_PLACEMENT_3D ( 'NONE', #392, #362, #322 ) ;
#240 = CARTESIAN_POINT ( 'NONE',  ( 0.0000000000000000000, 0.0000000000000000000, 0.0000000000000000000 ) ) ;
#241 = AXIS2_PLACEMENT_3D ( 'NONE', #240, #265, #68 ) ;
#242 = CIRCLE ( 'NONE', #108, 2.381500000000000000 ) ;
#243 = VERTEX_POINT ( 'NONE', #65 ) ;
#244 = VECTOR ( 'NONE', #399, 1000.000000000000000 ) ;
#245 = VERTEX_POINT ( 'NONE', #67 ) ;
#246 = EDGE_CURVE ( 'NONE', #375, #135, #40, .T. ) ;
#247 = CIRCLE ( 'NONE', #79, 7.937500000000000000 ) ;
#248 = ORIENTED_EDGE ( 'NONE', *, *, #204, .T. ) ;
#249 = APPROVAL ( #351, 'UNSPECIFIED' ) ;
#250 = VERTEX_POINT ( 'NONE', #83 ) ;
#251 = CARTESIAN_POINT ( 'NONE',  ( 0.0000000000000000000, 0.0000000000000000000, 0.0000000000000000000 ) ) ;
#252 = LINE ( 'NONE', #232, #221 ) ;
#253 = AXIS2_PLACEMENT_3D ( 'NONE', #296, #7, #113 ) ;
#254 = CARTESIAN_POINT ( 'NONE',  ( 160.0000000000000000, 0.0000000000000000000, 0.0000000000000000000 ) ) ;
#255 = DESIGN_CONTEXT ( 'detailed design', #291, 'design' ) ;
#256 =( GEOMETRIC_REPRESENTATION_CONTEXT ( 3 ) GLOBAL_UNCERTAINTY_ASSIGNED_CONTEXT ( ( #306 ) ) GLOBAL_UNIT_ASSIGNED_CONTEXT ( ( #234, #33, #205 ) ) REPRESENTATION_CONTEXT ( 'NONE', 'WORKASPACE' ) );
#257 = CARTESIAN_POINT ( 'NONE',  ( 160.0000000000000000, 0.0000000000000000000, 5.000000000000000000 ) ) ;
#258 = EDGE_CURVE ( 'NONE', #85, #193, #13, .T. ) ;
#259 = ADVANCED_FACE ( 'NONE', ( #26 ), #354, .F. ) ;
#260 = CARTESIAN_POINT ( 'NONE',  ( 0.0000000000000000000, 0.0000000000000000000, 3.750000000000000000 ) ) ;
#261 = EDGE_CURVE ( 'NONE', #148, #85, #252, .T. ) ;
#262 = APPROVAL_STATUS ( 'not_yet_approved' ) ;
#263 = VERTEX_POINT ( 'NONE', #57 ) ;
#264 = CARTESIAN_POINT ( 'NONE',  ( 160.0000000000000000, 7.921933981984440700E-016, -5.000000000000000000 ) ) ;
#265 = DIRECTION ( 'NONE',  ( -1.000000000000000000, -0.0000000000000000000, -0.0000000000000000000 ) ) ;
#266 = DIRECTION ( 'NONE',  ( 0.0000000000000000000, 0.0000000000000000000, -1.000000000000000000 ) ) ;
#267 = APPROVAL_ROLE ( '' ) ;
#268 = LINE ( 'NONE', #164, #200 ) ;
#269 = EDGE_CURVE ( 'NONE', #135, #375, #18, .T. ) ;
#270 = EDGE_LOOP ( 'NONE', ( #145, #56 ) ) ;
#271 = VERTEX_POINT ( 'NONE', #344 ) ;
#272 = CARTESIAN_POINT ( 'NONE',  ( 150.0000000000000000, 3.754460924485997800E-016, -2.381500000000000000 ) ) ;
#273 = CARTESIAN_POINT ( 'NONE',  ( 150.0000000000000000, 0.0000000000000000000, 2.381500000000000000 ) ) ;
#274 = CYLINDRICAL_SURFACE ( 'NONE', #381, 2.381500000000000000 ) ;
#275 = CC_DESIGN_APPROVAL ( #249, ( #191 ) ) ;
#276 = LINE ( 'NONE', #32, #178 ) ;
#277 = ORIENTED_EDGE ( 'NONE', *, *, #269, .T. ) ;
#278 = COORDINATED_UNIVERSAL_TIME_OFFSET ( 8, 0, .AHEAD. ) ;
#279 = AXIS2_PLACEMENT_3D ( 'NONE', #391, #377, #286 ) ;
#280 = CIRCLE ( 'NONE', #163, 5.000000000000000000 ) ;
#281 = ORIENTED_EDGE ( 'NONE', *, *, #284, .F. ) ;
#282 = ORIENTED_EDGE ( 'NONE', *, *, #204, .F. ) ;
#283 = PLANE ( 'NONE',  #9 ) ;
#284 = EDGE_CURVE ( 'NONE', #130, #148, #280, .T. ) ;
#285 = CIRCLE ( 'NONE', #220, 7.937500000000000000 ) ;
#286 = DIRECTION ( 'NONE',  ( 0.0000000000000000000, 0.0000000000000000000, 1.000000000000000000 ) ) ;
#287 = FACE_OUTER_BOUND ( 'NONE', #334, .T. ) ;
#288 = ORIENTED_EDGE ( 'NONE', *, *, #29, .F. ) ;
#289 = CC_DESIGN_SECURITY_CLASSIFICATION ( #191, ( #82 ) ) ;
#290 = CARTESIAN_POINT ( 'NONE',  ( 0.0000000000000000000, 7.937500000000000000, 0.0000000000000000000 ) ) ;
#291 = APPLICATION_CONTEXT ( 'configuration controlled 3d designs of mechanical parts and assemblies' ) ;
#292 = PERSON_AND_ORGANIZATION ( #124, #127 ) ;
#293 = CARTESIAN_POINT ( 'NONE',  ( 0.0000000000000000000, 0.0000000000000000000, 0.0000000000000000000 ) ) ;
#294 = DIRECTION ( 'NONE',  ( 1.000000000000000000, 0.0000000000000000000, 0.0000000000000000000 ) ) ;
#295 = EDGE_LOOP ( 'NONE', ( #288, #118, #92, #348 ) ) ;
#296 = CARTESIAN_POINT ( 'NONE',  ( 0.0000000000000000000, 0.0000000000000000000, 0.0000000000000000000 ) ) ;
#297 = PERSON_AND_ORGANIZATION_ROLE ( 'design_supplier' ) ;
#298 = PERSON_AND_ORGANIZATION ( #124, #127 ) ;
#299 = AXIS2_PLACEMENT_3D ( 'NONE', #305, #115, #95 ) ;
#300 = CIRCLE ( 'NONE', #198, 3.749999999999999600 ) ;
#301 = DIRECTION ( 'NONE',  ( 0.0000000000000000000, 0.0000000000000000000, 1.000000000000000000 ) ) ;
#302 = APPROVAL_PERSON_ORGANIZATION ( #292, #249, #176 ) ;
#303 = DIRECTION ( 'NONE',  ( -1.000000000000000000, -0.0000000000000000000, -0.0000000000000000000 ) ) ;
#304 = ORIENTED_EDGE ( 'NONE', *, *, #59, .T. ) ;
#305 = CARTESIAN_POINT ( 'NONE',  ( 150.0000000000000000, 0.0000000000000000000, 0.0000000000000000000 ) ) ;
#306 = UNCERTAINTY_MEASURE_WITH_UNIT (LENGTH_MEASURE( 1.000000000000000100E-005 ), #234, 'distance_accuracy_value', 'NONE');
#307 = ORIENTED_EDGE ( 'NONE', *, *, #195, .T. ) ;
#308 = ORIENTED_EDGE ( 'NONE', *, *, #393, .T. ) ;
#309 = PRODUCT_RELATED_PRODUCT_CATEGORY ( 'detail', '', ( #363 ) ) ;
#310 = CONICAL_SURFACE ( 'NONE', #197, 5.000000000000000000, 0.07853981633974502200 ) ;
#311 = ORIENTED_EDGE ( 'NONE', *, *, #37, .F. ) ;
#312 = PERSON_AND_ORGANIZATION ( #124, #127 ) ;
#313 = CARTESIAN_POINT ( 'NONE',  ( 122.6755235874869100, 0.0000000000000000000, 7.937500000000000000 ) ) ;
#314 = DIRECTION ( 'NONE',  ( 0.0000000000000000000, 0.0000000000000000000, 1.000000000000000000 ) ) ;
#315 = AXIS2_PLACEMENT_3D ( 'NONE', #227, #224, #201 ) ;
#316 = CARTESIAN_POINT ( 'NONE',  ( 150.0000000000000000, 2.916496352169421600E-016, -2.381500000000000000 ) ) ;
#317 = FACE_OUTER_BOUND ( 'NONE', #192, .T. ) ;
#318 = VERTEX_POINT ( 'NONE', #325 ) ;
#319 = DIRECTION ( 'NONE',  ( -0.9969173337331278500, 9.608468044710130400E-018, -0.07845909572784512400 ) ) ;
#320 = PERSON_AND_ORGANIZATION_ROLE ( 'design_owner' ) ;
#321 = FACE_BOUND ( 'NONE', #6, .T. ) ;
#322 = DIRECTION ( 'NONE',  ( 0.0000000000000000000, 0.0000000000000000000, 1.000000000000000000 ) ) ;
#323 = ORIENTED_EDGE ( 'NONE', *, *, #371, .F. ) ;
#324 = APPROVAL_DATE_TIME ( #346, #101 ) ;
#325 = CARTESIAN_POINT ( 'NONE',  ( 0.0000000000000000000, 4.592425496802574000E-016, -3.750000000000000000 ) ) ;
#326 = PERSON_AND_ORGANIZATION_ROLE ( 'classification_officer' ) ;
#327 = CONICAL_SURFACE ( 'NONE', #299, 2.381500000000000000, 0.7853981633974500600 ) ;
#328 = DIRECTION ( 'NONE',  ( -1.000000000000000000, -0.0000000000000000000, -0.0000000000000000000 ) ) ;
#329 = EDGE_CURVE ( 'NONE', #331, #245, #300, .T. ) ;
#330 = VECTOR ( 'NONE', #199, 1000.000000000000000 ) ;
#331 = VERTEX_POINT ( 'NONE', #114 ) ;
#332 = DIRECTION ( 'NONE',  ( -1.000000000000000000, -0.0000000000000000000, -0.0000000000000000000 ) ) ;
#333 = DIRECTION ( 'NONE',  ( -1.000000000000000000, -0.0000000000000000000, -0.0000000000000000000 ) ) ;
#334 = EDGE_LOOP ( 'NONE', ( #282, #222, #214, #360 ) ) ;
#335 = CIRCLE ( 'NONE', #315, 7.937500000000000000 ) ;
#336 = FACE_OUTER_BOUND ( 'NONE', #12, .T. ) ;
#337 = DATE_AND_TIME ( #380, #237 ) ;
#338 = EDGE_LOOP ( 'NONE', ( #43, #235, #203, #52 ) ) ;
#339 = AXIS2_PLACEMENT_3D ( 'NONE', #357, #373, #378 ) ;
#340 = AXIS2_PLACEMENT_3D ( 'NONE', #8, #3, #349 ) ;
#341 = CYLINDRICAL_SURFACE ( 'NONE', #339, 3.750000000000000000 ) ;
#342 = ORIENTED_EDGE ( 'NONE', *, *, #195, .F. ) ;
#343 = DIRECTION ( 'NONE',  ( -1.000000000000000000, -0.0000000000000000000, -0.0000000000000000000 ) ) ;
#344 = CARTESIAN_POINT ( 'NONE',  ( 160.0000000000000000, 0.0000000000000000000, 2.381500000000000000 ) ) ;
#345 = ORIENTED_EDGE ( 'NONE', *, *, #29, .T. ) ;
#346 = DATE_AND_TIME ( #146, #155 ) ;
#347 = CIRCLE ( 'NONE', #119, 2.381500000000000000 ) ;
#348 = ORIENTED_EDGE ( 'NONE', *, *, #174, .F. ) ;
#349 = DIRECTION ( 'NONE',  ( 1.000000000000000000, 0.0000000000000000000, 0.0000000000000000000 ) ) ;
#350 = CARTESIAN_POINT ( 'NONE',  ( 0.0000000000000000000, 0.0000000000000000000, 0.0000000000000000000 ) ) ;
#351 = APPROVAL_STATUS ( 'not_yet_approved' ) ;
#352 = AXIS2_PLACEMENT_3D ( 'NONE', #350, #328, #370 ) ;
#353 = CC_DESIGN_PERSON_AND_ORGANIZATION_ASSIGNMENT ( #312, #320, ( #363 ) ) ;
#354 = CYLINDRICAL_SURFACE ( 'NONE', #212, 3.750000000000000000 ) ;
#355 = CONICAL_SURFACE ( 'NONE', #279, 5.000000000000000000, 0.07853981633974502200 ) ;
#356 = ORIENTED_EDGE ( 'NONE', *, *, #329, .T. ) ;
#357 = CARTESIAN_POINT ( 'NONE',  ( 0.0000000000000000000, 0.0000000000000000000, 0.0000000000000000000 ) ) ;
#358 = CYLINDRICAL_SURFACE ( 'NONE', #142, 7.937500000000000000 ) ;
#359 = LINE ( 'NONE', #316, #244 ) ;
#360 = ORIENTED_EDGE ( 'NONE', *, *, #393, .F. ) ;
#361 = EDGE_LOOP ( 'NONE', ( #311, #281 ) ) ;
#362 = DIRECTION ( 'NONE',  ( -1.000000000000000000, -0.0000000000000000000, -0.0000000000000000000 ) ) ;
#363 = PRODUCT ( 'STP-86064', 'STP-86064', '', ( #31 ) ) ;
#364 = DIRECTION ( 'NONE',  ( 0.0000000000000000000, 0.0000000000000000000, 1.000000000000000000 ) ) ;
#365 = EDGE_CURVE ( 'NONE', #331, #318, #268, .T. ) ;
#366 = PRODUCT_DEFINITION ( 'UNKNOWN', '', #82, #255 ) ;
#367 = CARTESIAN_POINT ( 'NONE',  ( 160.0000000000000000, 0.0000000000000000000, 0.0000000000000000000 ) ) ;
#368 = PERSON_AND_ORGANIZATION_ROLE ( 'creator' ) ;
#369 = ORIENTED_EDGE ( 'NONE', *, *, #246, .T. ) ;
#370 = DIRECTION ( 'NONE',  ( 0.0000000000000000000, 0.0000000000000000000, 1.000000000000000000 ) ) ;
#371 = EDGE_CURVE ( 'NONE', #85, #263, #285, .T. ) ;
#372 = DIRECTION ( 'NONE',  ( -1.000000000000000000, -0.0000000000000000000, -0.0000000000000000000 ) ) ;
#373 = DIRECTION ( 'NONE',  ( -1.000000000000000000, -0.0000000000000000000, -0.0000000000000000000 ) ) ;
#374 = LINE ( 'NONE', #260, #330 ) ;
#375 = VERTEX_POINT ( 'NONE', #272 ) ;
#376 = COORDINATED_UNIVERSAL_TIME_OFFSET ( 8, 0, .AHEAD. ) ;
#377 = DIRECTION ( 'NONE',  ( -1.000000000000000000, -0.0000000000000000000, -0.0000000000000000000 ) ) ;
#378 = DIRECTION ( 'NONE',  ( 0.0000000000000000000, 0.0000000000000000000, 1.000000000000000000 ) ) ;
#379 = ORIENTED_EDGE ( 'NONE', *, *, #20, .T. ) ;
#380 = CALENDAR_DATE ( 2017, 10, 2 ) ;
#381 = AXIS2_PLACEMENT_3D ( 'NONE', #293, #333, #314 ) ;
#382 = DATE_AND_TIME ( #103, #385 ) ;
#383 = ORIENTED_EDGE ( 'NONE', *, *, #217, .T. ) ;
#384 = APPROVAL ( #262, 'UNSPECIFIED' ) ;
#385 = LOCAL_TIME ( 13, 16, 52.00000000000000000, #216 ) ;
#386 = ORIENTED_EDGE ( 'NONE', *, *, #86, .T. ) ;
#387 = EDGE_CURVE ( 'NONE', #271, #135, #120, .T. ) ;
#388 = CIRCLE ( 'NONE', #48, 3.749999999999999600 ) ;
#389 = DIRECTION ( 'NONE',  ( 0.0000000000000000000, 0.0000000000000000000, 1.000000000000000000 ) ) ;
#390 = ORIENTED_EDGE ( 'NONE', *, *, #144, .T. ) ;
#391 = CARTESIAN_POINT ( 'NONE',  ( 160.0000000000000000, 0.0000000000000000000, 0.0000000000000000000 ) ) ;
#392 = CARTESIAN_POINT ( 'NONE',  ( 150.0000000000000000, 0.0000000000000000000, 0.0000000000000000000 ) ) ;
#393 = EDGE_CURVE ( 'NONE', #243, #193, #87, .T. ) ;
#394 = ADVANCED_BREP_SHAPE_REPRESENTATION ( 'STP-86064', ( #190, #340 ), #256 ) ;
#395 = APPROVAL_DATE_TIME ( #382, #249 ) ;
#396 = DIRECTION ( 'NONE',  ( 0.0000000000000000000, 0.0000000000000000000, 1.000000000000000000 ) ) ;
#397 = ORIENTED_EDGE ( 'NONE', *, *, #365, .T. ) ;
#398 = APPROVAL_STATUS ( 'not_yet_approved' ) ;
#399 = DIRECTION ( 'NONE',  ( -0.7071067811865463500, 8.659560562354948900E-017, -0.7071067811865487900 ) ) ;
ENDSEC;
END-ISO-10303-21;
