  0
SECTION
  2
HEADER
  9
$ACADVER
  1
AC1018
  9
$ACADMAINTVER
 70
   104
  9
$DWGCODEPAGE
  3
ANSI_1252
  9
$LASTSAVEDBY
  1
Administrator
  9
$INSBASE
 10
0.0
 20
0.0
 30
0.0
  9
$EXTMIN
 10
6.0
 20
7.950807681199999
 30
0.0
  9
$EXTMAX
 10
206.0157443667
 20
294.0
 30
0.0
  9
$LIMMIN
 10
0.0
 20
0.0
  9
$LIMMAX
 10
210.0
 20
297.0
  9
$ORTHOMODE
 70
     0
  9
$REGENMODE
 70
     1
  9
$FILLMODE
 70
     1
  9
$QTEXTMODE
 70
     0
  9
$MIRRTEXT
 70
     0
  9
$LTSCALE
 40
19.36
  9
$ATTMODE
 70
     1
  9
$TEXTSIZE
 40
0.2
  9
$TRACEWID
 40
0.05
  9
$TEXTSTYLE
  7
STANDARD
  9
$CLAYER
  8
0
  9
$CELTYPE
  6
BYLAYER
  9
$CECOLOR
 62
   256
  9
$CELTSCALE
 40
1.0
  9
$DISPSILH
 70
     0
  9
$DIMSCALE
 40
1.0
  9
$DIMASZ
 40
4.759999999999999
  9
$DIMEXO
 40
2.2
  9
$DIMDLI
 40
13.376
  9
$DIMRND
 40
0.0
  9
$DIMDLE
 40
0.0
  9
$DIMEXE
 40
6.336
  9
$DIMTP
 40
0.001
  9
$DIMTM
 40
0.001
  9
$DIMTXT
 40
1.5
  9
$DIMCEN
 40
3.168
  9
$DIMTSZ
 40
0.0
  9
$DIMTOL
 70
     1
  9
$DIMLIM
 70
     0
  9
$DIMTIH
 70
     1
  9
$DIMTOH
 70
     1
  9
$DIMSE1
 70
     0
  9
$DIMSE2
 70
     0
  9
$DIMTAD
 70
     0
  9
$DIMZIN
 70
     0
  9
$DIMBLK
  1

  9
$DIMASO
 70
     1
  9
$DIMSHO
 70
     1
  9
$DIMPOST
  1

  9
$DIMAPOST
  1

  9
$DIMALT
 70
     0
  9
$DIMALTD
 70
     2
  9
$DIMALTF
 40
25.4
  9
$DIMLFAC
 40
1.0
  9
$DIMTOFL
 70
     0
  9
$DIMTVP
 40
0.0
  9
$DIMTIX
 70
     0
  9
$DIMSOXD
 70
     0
  9
$DIMSAH
 70
     0
  9
$DIMBLK1
  1

  9
$DIMBLK2
  1

  9
$DIMSTYLE
  2
STANDARD
  9
$DIMCLRD
 70
     0
  9
$DIMCLRE
 70
     0
  9
$DIMCLRT
 70
     0
  9
$DIMTFAC
 40
1.0
  9
$DIMGAP
 40
0.09
  9
$DIMJUST
 70
     0
  9
$DIMSD1
 70
     0
  9
$DIMSD2
 70
     0
  9
$DIMTOLJ
 70
     1
  9
$DIMTZIN
 70
     0
  9
$DIMALTZ
 70
     0
  9
$DIMALTTZ
 70
     0
  9
$DIMUPT
 70
     0
  9
$DIMDEC
 70
     4
  9
$DIMTDEC
 70
     4
  9
$DIMALTU
 70
     2
  9
$DIMALTTD
 70
     2
  9
$DIMTXSTY
  7
STANDARD
  9
$DIMAUNIT
 70
     0
  9
$DIMADEC
 70
     0
  9
$DIMALTRND
 40
0.0
  9
$DIMAZIN
 70
     0
  9
$DIMDSEP
 70
    46
  9
$DIMATFIT
 70
     3
  9
$DIMFRAC
 70
     0
  9
$DIMLDRBLK
  1

  9
$DIMLUNIT
 70
     2
  9
$DIMLWD
 70
    -2
  9
$DIMLWE
 70
    -2
  9
$DIMTMOVE
 70
     0
  9
$LUNITS
 70
     2
  9
$LUPREC
 70
     4
  9
$SKETCHINC
 40
0.1
  9
$FILLETRAD
 40
0.0
  9
$AUNITS
 70
     0
  9
$AUPREC
 70
     0
  9
$MENU
  1
.
  9
$ELEVATION
 40
0.0
  9
$PELEVATION
 40
0.0
  9
$THICKNESS
 40
0.0
  9
$LIMCHECK
 70
     0
  9
$CHAMFERA
 40
0.0
  9
$CHAMFERB
 40
0.0
  9
$CHAMFERC
 40
0.0
  9
$CHAMFERD
 40
0.0
  9
$SKPOLY
 70
     0
  9
$TDCREATE
 40
2457120.344710221
  9
$TDUCREATE
 40
2457120.261376886
  9
$TDUPDATE
 40
2457120.345203819
  9
$TDUUPDATE
 40
2457120.261870486
  9
$TDINDWG
 40
0.0004943171
  9
$TDUSRTIMER
 40
0.0004943171
  9
$USRTIMER
 70
     1
  9
$ANGBASE
 50
0.0
  9
$ANGDIR
 70
     0
  9
$PDMODE
 70
     3
  9
$PDSIZE
 40
0.3125
  9
$PLINEWID
 40
0.0
  9
$SPLFRAME
 70
     0
  9
$SPLINETYPE
 70
     6
  9
$SPLINESEGS
 70
     8
  9
$HANDSEED
  5
602
  9
$SURFTAB1
 70
     6
  9
$SURFTAB2
 70
     6
  9
$SURFTYPE
 70
     6
  9
$SURFU
 70
     6
  9
$SURFV
 70
     6
  9
$UCSBASE
  2

  9
$UCSNAME
  2

  9
$UCSORG
 10
0.0
 20
0.0
 30
0.0
  9
$UCSXDIR
 10
1.0
 20
0.0
 30
0.0
  9
$UCSYDIR
 10
0.0
 20
1.0
 30
0.0
  9
$UCSORTHOREF
  2

  9
$UCSORTHOVIEW
 70
     0
  9
$UCSORGTOP
 10
0.0
 20
0.0
 30
0.0
  9
$UCSORGBOTTOM
 10
0.0
 20
0.0
 30
0.0
  9
$UCSORGLEFT
 10
0.0
 20
0.0
 30
0.0
  9
$UCSORGRIGHT
 10
0.0
 20
0.0
 30
0.0
  9
$UCSORGFRONT
 10
0.0
 20
0.0
 30
0.0
  9
$UCSORGBACK
 10
0.0
 20
0.0
 30
0.0
  9
$PUCSBASE
  2

  9
$PUCSNAME
  2

  9
$PUCSORG
 10
0.0
 20
0.0
 30
0.0
  9
$PUCSXDIR
 10
1.0
 20
0.0
 30
0.0
  9
$PUCSYDIR
 10
0.0
 20
1.0
 30
0.0
  9
$PUCSORTHOREF
  2

  9
$PUCSORTHOVIEW
 70
     0
  9
$PUCSORGTOP
 10
0.0
 20
0.0
 30
0.0
  9
$PUCSORGBOTTOM
 10
0.0
 20
0.0
 30
0.0
  9
$PUCSORGLEFT
 10
0.0
 20
0.0
 30
0.0
  9
$PUCSORGRIGHT
 10
0.0
 20
0.0
 30
0.0
  9
$PUCSORGFRONT
 10
0.0
 20
0.0
 30
0.0
  9
$PUCSORGBACK
 10
0.0
 20
0.0
 30
0.0
  9
$USERI1
 70
     0
  9
$USERI2
 70
     0
  9
$USERI3
 70
     0
  9
$USERI4
 70
     0
  9
$USERI5
 70
     0
  9
$USERR1
 40
0.0
  9
$USERR2
 40
0.0
  9
$USERR3
 40
0.0
  9
$USERR4
 40
0.0
  9
$USERR5
 40
0.0
  9
$WORLDVIEW
 70
     1
  9
$SHADEDGE
 70
     3
  9
$SHADEDIF
 70
    70
  9
$TILEMODE
 70
     1
  9
$MAXACTVP
 70
    64
  9
$PINSBASE
 10
0.0
 20
0.0
 30
0.0
  9
$PLIMCHECK
 70
     0
  9
$PEXTMIN
 10
1.000000000000000E+20
 20
1.000000000000000E+20
 30
1.000000000000000E+20
  9
$PEXTMAX
 10
-1.000000000000000E+20
 20
-1.000000000000000E+20
 30
-1.000000000000000E+20
  9
$PLIMMIN
 10
0.0
 20
0.0
  9
$PLIMMAX
 10
12.0
 20
9.0
  9
$UNITMODE
 70
     0
  9
$VISRETAIN
 70
     1
  9
$PLINEGEN
 70
     0
  9
$PSLTSCALE
 70
     1
  9
$TREEDEPTH
 70
  3020
  9
$CMLSTYLE
  2
Standard
  9
$CMLJUST
 70
     0
  9
$CMLSCALE
 40
1.0
  9
$PROXYGRAPHICS
 70
     1
  9
$MEASUREMENT
 70
     1
  9
$CELWEIGHT
370
    -1
  9
$ENDCAPS
280
     0
  9
$JOINSTYLE
280
     0
  9
$LWDISPLAY
290
     0
  9
$INSUNITS
 70
     4
  9
$HYPERLINKBASE
  1

  9
$STYLESHEET
  1

  9
$XEDIT
290
     1
  9
$CEPSNTYPE
380
     0
  9
$PSTYLEMODE
290
     1
  9
$FINGERPRINTGUID
  2
{051A0ACB-3E34-41C1-8D4B-B8BAF93AEBBC}
  9
$VERSIONGUID
  2
{ACC5CF3D-5CAC-40B7-B21F-EDDA40482ACE}
  9
$EXTNAMES
290
     1
  9
$PSVPSCALE
 40
0.0
  9
$OLESTARTUP
290
     0
  9
$SORTENTS
280
   127
  9
$INDEXCTL
280
     0
  9
$HIDETEXT
280
     1
  9
$XCLIPFRAME
290
     0
  9
$HALOGAP
280
     0
  9
$OBSCOLOR
 70
   257
  9
$OBSLTYPE
280
     0
  9
$INTERSECTIONDISPLAY
280
     0
  9
$INTERSECTIONCOLOR
 70
   257
  9
$DIMASSOC
280
     2
  9
$PROJECTNAME
  1

  0
ENDSEC
  0
SECTION
  2
CLASSES
  0
CLASS
  1
ACDBDICTIONARYWDFLT
  2
AcDbDictionaryWithDefault
  3
ObjectDBX Classes
 90
        0
 91
        1
280
     0
281
     0
  0
CLASS
  1
MATERIAL
  2
AcDbMaterial
  3
ObjectDBX Classes
 90
     1153
 91
        3
280
     0
281
     0
  0
CLASS
  1
VISUALSTYLE
  2
AcDbVisualStyle
  3
ObjectDBX Classes
 90
     4095
 91
       19
280
     0
281
     0
  0
CLASS
  1
TABLESTYLE
  2
AcDbTableStyle
  3
ObjectDBX Classes
 90
     4095
 91
        1
280
     0
281
     0
  0
CLASS
  1
SCALE
  2
AcDbScale
  3
ObjectDBX Classes
 90
     1153
 91
       17
280
     0
281
     0
  0
CLASS
  1
MLEADERSTYLE
  2
AcDbMLeaderStyle
  3
ACDB_MLEADERSTYLE_CLASS
 90
     4095
 91
        1
280
     0
281
     0
  0
CLASS
  1
DICTIONARYVAR
  2
AcDbDictionaryVar
  3
ObjectDBX Classes
 90
        0
 91
        4
280
     0
281
     0
  0
CLASS
  1
CELLSTYLEMAP
  2
AcDbCellStyleMap
  3
ObjectDBX Classes
 90
     1152
 91
        1
280
     0
281
     0
  0
ENDSEC
  0
SECTION
  2
TABLES
  0
TABLE
  2
VPORT
  5
8
330
0
100
AcDbSymbolTable
 70
     1
  0
VPORT
  5
1F4
330
8
100
AcDbSymbolTableRecord
100
AcDbViewportTableRecord
  2
*ACTIVE
 70
     0
 10
0.0
 20
0.0
 11
1.0
 21
1.0
 12
183.9997175244669
 22
42.91866008161401
 13
0.0
 23
0.0
 14
1.0
 24
1.0
 15
0.0
 25
0.0
 16
0.0
 26
0.0
 36
1.0
 17
0.0
 27
0.0
 37
0.0
 40
214.8102016093312
 41
1.862932061978545
 42
50.0
 43
0.0
 44
0.0
 50
0.0
 51
0.0
 71
     0
 72
   100
 73
     1
 74
     1
 75
     0
 76
     0
 77
     0
 78
     0
281
     0
 65
     1
110
0.0
120
0.0
130
0.0
111
1.0
121
0.0
131
0.0
112
0.0
122
1.0
132
0.0
 79
     0
146
0.0
  0
ENDTAB
  0
TABLE
  2
LTYPE
  5
5
330
0
100
AcDbSymbolTable
 70
     6
  0
LTYPE
  5
14
330
5
100
AcDbSymbolTableRecord
100
AcDbLinetypeTableRecord
  2
BYBLOCK
 70
     0
  3

 72
    65
 73
     0
 40
0.0
  0
LTYPE
  5
15
330
5
100
AcDbSymbolTableRecord
100
AcDbLinetypeTableRecord
  2
BYLAYER
 70
     0
  3

 72
    65
 73
     0
 40
0.0
  0
LTYPE
  5
16
330
5
100
AcDbSymbolTableRecord
100
AcDbLinetypeTableRecord
  2
CONTINUOUS
 70
     0
  3
Solid line
 72
    65
 73
     0
 40
0.0
  0
LTYPE
  5
1F5
330
5
100
AcDbSymbolTableRecord
100
AcDbLinetypeTableRecord
  2
CENTER
 70
     0
  3
____ _ ____ _ ____ _ ____ _ ____ _ ____ _ ____
 72
    65
 73
     4
 40
0.6
 49
0.375
 74
     0
 49
-0.075
 74
     0
 49
0.075
 74
     0
 49
-0.075
 74
     0
  0
LTYPE
  5
1F6
330
5
100
AcDbSymbolTableRecord
100
AcDbLinetypeTableRecord
  2
HIDDEN
 70
     0
  3
- - - - - - - - - - - - - - - - - - - -
 72
    65
 73
     2
 40
0.2
 49
0.1
 74
     0
 49
-0.1
 74
     0
  0
LTYPE
  5
1F7
330
5
100
AcDbSymbolTableRecord
100
AcDbLinetypeTableRecord
  2
PHANTOM
 70
     0
  3
_____ _ _ _____ _ _ _____ _ _ _____
 72
    65
 73
     6
 40
0.8
 49
0.45
 74
     0
 49
-0.05
 74
     0
 49
0.1
 74
     0
 49
-0.05
 74
     0
 49
0.1
 74
     0
 49
-0.05
 74
     0
  0
LTYPE
  5
1F8
330
5
100
AcDbSymbolTableRecord
100
AcDbLinetypeTableRecord
  2
DOT
 70
     0
  3
. . . . . . . . . . . . . . . . . . . .
 72
    65
 73
     2
 40
0.2
 49
0.1
 74
     0
 49
-0.1
 74
     0
  0
LTYPE
  5
1F9
330
5
100
AcDbSymbolTableRecord
100
AcDbLinetypeTableRecord
  2
DASHED
 70
     0
  3
- - - - - - - - - - - - - - - - - - - -
 72
    65
 73
     2
 40
0.2
 49
0.1
 74
     0
 49
-0.1
 74
     0
  0
ENDTAB
  0
TABLE
  2
LAYER
  5
2
330
0
100
AcDbSymbolTable
 70
    26
  0
LAYER
  5
10
102
{ACAD_XDICTIONARY
360
59B
102
}
330
2
100
AcDbSymbolTableRecord
100
AcDbLayerTableRecord
  2
0
 70
     0
 62
     7
  6
CONTINUOUS
370
    -3
390
F
  0
LAYER
  5
1FA
102
{ACAD_XDICTIONARY
360
59D
102
}
330
2
100
AcDbSymbolTableRecord
100
AcDbLayerTableRecord
  2
DEFAULT_1
 70
     0
 62
     7
  6
CENTER
370
    -3
390
F
  0
LAYER
  5
1FB
102
{ACAD_XDICTIONARY
360
59F
102
}
330
2
100
AcDbSymbolTableRecord
100
AcDbLayerTableRecord
  2
DEFAULT_2
 70
     0
 62
     8
  6
HIDDEN
370
    -3
390
F
  0
LAYER
  5
1FC
102
{ACAD_XDICTIONARY
360
5A1
102
}
330
2
100
AcDbSymbolTableRecord
100
AcDbLayerTableRecord
  2
DEFAULT_3
 70
     0
 62
     7
  6
PHANTOM
370
    -3
390
F
  0
LAYER
  5
1FD
102
{ACAD_XDICTIONARY
360
5A3
102
}
330
2
100
AcDbSymbolTableRecord
100
AcDbLayerTableRecord
  2
0_COMPONENTS
 70
     0
 62
     7
  6
CONTINUOUS
370
    -3
390
F
  0
LAYER
  5
1FE
102
{ACAD_XDICTIONARY
360
5A5
102
}
330
2
100
AcDbSymbolTableRecord
100
AcDbLayerTableRecord
  2
1_ALL_PLANES
 70
     0
 62
     7
  6
CONTINUOUS
370
    -3
390
F
  0
LAYER
  5
1FF
102
{ACAD_XDICTIONARY
360
5A7
102
}
330
2
100
AcDbSymbolTableRecord
100
AcDbLayerTableRecord
  2
1__DEF_ASM_PLN
 70
     0
 62
     7
  6
CONTINUOUS
370
    -3
390
F
  0
LAYER
  5
200
102
{ACAD_XDICTIONARY
360
5A9
102
}
330
2
100
AcDbSymbolTableRecord
100
AcDbLayerTableRecord
  2
1__DEF_PLANES
 70
     0
 62
     7
  6
CONTINUOUS
370
    -3
390
F
  0
LAYER
  5
201
102
{ACAD_XDICTIONARY
360
5AB
102
}
330
2
100
AcDbSymbolTableRecord
100
AcDbLayerTableRecord
  2
2_ALL_CSYS
 70
     0
 62
     7
  6
CONTINUOUS
370
    -3
390
F
  0
LAYER
  5
202
102
{ACAD_XDICTIONARY
360
5AD
102
}
330
2
100
AcDbSymbolTableRecord
100
AcDbLayerTableRecord
  2
2_ALL_NOTES
 70
     0
 62
     7
  6
CONTINUOUS
370
    -3
390
F
  0
LAYER
  5
203
102
{ACAD_XDICTIONARY
360
5AF
102
}
330
2
100
AcDbSymbolTableRecord
100
AcDbLayerTableRecord
  2
2__DEF_ASM_CSYS
 70
     0
 62
     7
  6
CONTINUOUS
370
    -3
390
F
  0
LAYER
  5
204
102
{ACAD_XDICTIONARY
360
5B1
102
}
330
2
100
AcDbSymbolTableRecord
100
AcDbLayerTableRecord
  2
2__DEF_CSYS
 70
     0
 62
     7
  6
CONTINUOUS
370
    -3
390
F
  0
LAYER
  5
205
102
{ACAD_XDICTIONARY
360
5B3
102
}
330
2
100
AcDbSymbolTableRecord
100
AcDbLayerTableRecord
  2
3_ALL_AXES
 70
     0
 62
     7
  6
CONTINUOUS
370
    -3
390
F
  0
LAYER
  5
206
102
{ACAD_XDICTIONARY
360
5B5
102
}
330
2
100
AcDbSymbolTableRecord
100
AcDbLayerTableRecord
  2
4_ALL_POINTS
 70
     0
 62
     7
  6
CONTINUOUS
370
    -3
390
F
  0
LAYER
  5
207
102
{ACAD_XDICTIONARY
360
5B7
102
}
330
2
100
AcDbSymbolTableRecord
100
AcDbLayerTableRecord
  2
5_ALL_CURVES
 70
     0
 62
     7
  6
CONTINUOUS
370
    -3
390
F
  0
LAYER
  5
208
102
{ACAD_XDICTIONARY
360
5B9
102
}
330
2
100
AcDbSymbolTableRecord
100
AcDbLayerTableRecord
  2
5_ALL_GTOLS(FREE)
 70
     0
 62
     7
  6
CONTINUOUS
370
    -3
390
F
  0
LAYER
  5
209
102
{ACAD_XDICTIONARY
360
5BB
102
}
330
2
100
AcDbSymbolTableRecord
100
AcDbLayerTableRecord
  2
6_ALL_SURFS
 70
     0
 62
     7
  6
CONTINUOUS
370
    -3
390
F
  0
LAYER
  5
20A
102
{ACAD_XDICTIONARY
360
5BD
102
}
330
2
100
AcDbSymbolTableRecord
100
AcDbLayerTableRecord
  2
CURVE
 70
     0
 62
     7
  6
CONTINUOUS
370
    -3
390
F
  0
LAYER
  5
20B
102
{ACAD_XDICTIONARY
360
5BF
102
}
330
2
100
AcDbSymbolTableRecord
100
AcDbLayerTableRecord
  2
CURVE7982
 70
     0
 62
     7
  6
CONTINUOUS
370
    -3
390
F
  0
LAYER
  5
20C
102
{ACAD_XDICTIONARY
360
5C1
102
}
330
2
100
AcDbSymbolTableRecord
100
AcDbLayerTableRecord
  2
CURVE_CAVE
 70
     0
 62
     7
  6
CONTINUOUS
370
    -3
390
F
  0
LAYER
  5
20D
102
{ACAD_XDICTIONARY
360
5C3
102
}
330
2
100
AcDbSymbolTableRecord
100
AcDbLayerTableRecord
  2
CURVE_SFERE
 70
     0
 62
     7
  6
CONTINUOUS
370
    -3
390
F
  0
LAYER
  5
20E
102
{ACAD_XDICTIONARY
360
5C5
102
}
330
2
100
AcDbSymbolTableRecord
100
AcDbLayerTableRecord
  2
CURVE_SMUSSI
 70
     0
 62
     7
  6
CONTINUOUS
370
    -3
390
F
  0
LAYER
  5
20F
102
{ACAD_XDICTIONARY
360
5C7
102
}
330
2
100
AcDbSymbolTableRecord
100
AcDbLayerTableRecord
  2
GIANNI_ASSI
 70
     0
 62
     7
  6
CONTINUOUS
370
    -3
390
F
  0
LAYER
  5
210
102
{ACAD_XDICTIONARY
360
5C9
102
}
330
2
100
AcDbSymbolTableRecord
100
AcDbLayerTableRecord
  2
GIANNI_CURVE
 70
     0
 62
     7
  6
CONTINUOUS
370
    -3
390
F
  0
LAYER
  5
211
102
{ACAD_XDICTIONARY
360
5CB
102
}
330
2
100
AcDbSymbolTableRecord
100
AcDbLayerTableRecord
  2
PIANI
 70
     0
 62
     7
  6
CONTINUOUS
370
    -3
390
F
  0
LAYER
  5
212
102
{ACAD_XDICTIONARY
360
5CD
102
}
330
2
100
AcDbSymbolTableRecord
100
AcDbLayerTableRecord
  2
XSEC_DATUMS
 70
     0
 62
     7
  6
CONTINUOUS
370
    -3
390
F
  0
ENDTAB
  0
TABLE
  2
STYLE
  5
3
330
0
100
AcDbSymbolTable
 70
     4
  0
STYLE
  5
11
330
3
100
AcDbSymbolTableRecord
100
AcDbTextStyleTableRecord
  2
STANDARD
 70
     0
 40
0.0
 41
1.199999999999999
 50
0.0
 71
     0
 42
0.2
  3
txt
  4

  0
STYLE
  5
213
330
3
100
AcDbSymbolTableRecord
100
AcDbTextStyleTableRecord
  2
TEXTSTYLE_1
 70
     0
 40
0.0
 41
0.8
 50
0.0
 71
     0
 42
0.2
  3
gdt
  4

  0
STYLE
  5
214
330
3
100
AcDbSymbolTableRecord
100
AcDbTextStyleTableRecord
  2
TEXTSTYLE_2
 70
     0
 40
0.0
 41
0.75
 50
0.0
 71
     0
 42
0.2
  3
txt
  4

  0
STYLE
  5
215
330
3
100
AcDbSymbolTableRecord
100
AcDbTextStyleTableRecord
  2
TEXTSTYLE_3
 70
     0
 40
0.0
 41
0.75
 50
0.0
 71
     0
 42
0.2
  3
gdt
  4

  0
ENDTAB
  0
TABLE
  2
VIEW
  5
6
330
0
100
AcDbSymbolTable
 70
     0
  0
ENDTAB
  0
TABLE
  2
UCS
  5
7
330
0
100
AcDbSymbolTable
 70
     0
  0
ENDTAB
  0
TABLE
  2
APPID
  5
9
330
0
100
AcDbSymbolTable
 70
     2
  0
APPID
  5
216
330
9
100
AcDbSymbolTableRecord
100
AcDbRegAppTableRecord
  2
ACAD
 70
     0
  0
APPID
  5
601
330
9
100
AcDbSymbolTableRecord
100
AcDbRegAppTableRecord
  2
ACAD_MLEADERVER
 70
     0
  0
ENDTAB
  0
TABLE
  2
DIMSTYLE
  5
A
330
0
100
AcDbSymbolTable
 70
     1
100
AcDbDimStyleTable
 71
     0
  0
DIMSTYLE
105
219
330
A
100
AcDbSymbolTableRecord
100
AcDbDimStyleTableRecord
  2
STANDARD
 70
     0
 41
4.759999999999999
 47
0.001
 48
0.001
 71
     1
 73
     0
 74
     0
 77
     1
 78
     8
140
1.5
178
     5
271
     3
272
     3
284
     8
340
11
  0
ENDTAB
  0
TABLE
  2
BLOCK_RECORD
  5
1
330
0
100
AcDbSymbolTable
 70
     0
  0
BLOCK_RECORD
  5
217
330
1
100
AcDbSymbolTableRecord
100
AcDbBlockTableRecord
  2
*Model_Space
340
550
  0
BLOCK_RECORD
  5
218
330
1
100
AcDbSymbolTableRecord
100
AcDbBlockTableRecord
  2
*Paper_Space
340
551
  0
ENDTAB
  0
ENDSEC
  0
SECTION
  2
BLOCKS
  0
BLOCK
  5
20
330
217
100
AcDbEntity
  8
0
100
AcDbBlockBegin
  2
*Model_Space
 70
     0
 10
0.0
 20
0.0
 30
0.0
  3
*Model_Space
  1

  0
ENDBLK
  5
21
330
217
100
AcDbEntity
  8
0
100
AcDbBlockEnd
  0
BLOCK
  5
1C
330
218
100
AcDbEntity
 67
     1
  8
0
100
AcDbBlockBegin
  2
*Paper_Space
 70
     0
 10
0.0
 20
0.0
 30
0.0
  3
*Paper_Space
  1

  0
ENDBLK
  5
1D
330
218
100
AcDbEntity
 67
     1
  8
0
100
AcDbBlockEnd
  0
ENDSEC
  0
SECTION
  2
ENTITIES
  0
MTEXT
  5
21A
330
217
100
AcDbEntity
  8
0
  6
Continuous
 62
     7
100
AcDbMText
 10
140.9279059986
 20
22.0104184288
 30
0.0
 40
2.6458333333
 41
13.8906249998
 71
     1
 72
     1
  1
CLIENTE
  7
TEXTSTYLE_2
 73
     1
 44
1.0
  0
MTEXT
  5
21B
330
217
100
AcDbEntity
  8
0
  6
Continuous
 62
     7
100
AcDbMText
 10
140.5822065425
 20
13.5509614896
 30
0.0
 40
2.6458333333
 41
13.6701388887
 71
     1
 72
     1
  1
DIS. N\Fgdt;{\Fgdt;~}
  7
TEXTSTYLE_2
 73
     1
 44
1.0
  0
MTEXT
  5
21C
330
217
100
AcDbEntity
  8
0
  6
Continuous
 62
     7
100
AcDbMText
 10
139.6768072126
 20
35.3009599803
 30
0.0
 40
2.1166666667
 41
6.350000000099999
 71
     1
 72
     1
  1
Data
  7
TEXTSTYLE_2
 73
     1
 44
1.0
  0
MTEXT
  5
21D
330
217
100
AcDbEntity
  8
0
  6
Continuous
 62
     7
100
AcDbMText
 10
172.9295490815
 20
35.3009599803
 30
0.0
 40
2.1166666667
 41
7.9375000001
 71
     1
 72
     1
  1
Prog.
  7
TEXTSTYLE_2
 73
     1
 44
1.0
  0
MTEXT
  5
21E
330
217
100
AcDbEntity
  8
0
  6
Continuous
 62
     7
100
AcDbMText
 10
172.9295490815
 20
30.0247312717
 30
0.0
 40
2.1166666667
 41
9.5250000001
 71
     1
 72
     1
  1
Verif.
  7
TEXTSTYLE_2
 73
     1
 44
1.0
  0
MTEXT
  5
21F
330
217
100
AcDbEntity
  8
0
  6
Continuous
 62
     7
100
AcDbMText
 10
182.8175196901
 20
35.3009599803
 30
0.0
 40
2.1166666667
 41
6.350000000099999
 71
     1
 72
     1
  1
M.R.
  7
TEXTSTYLE_2
 73
     1
 44
1.0
  0
MTEXT
  5
220
330
217
100
AcDbEntity
  8
0
  6
Continuous
 62
     7
100
AcDbMText
 10
152.0293028375
 20
35.30096014690001
 30
0.0
 40
2.116666999999999
 41
9.5250015
 71
     1
 72
     1
  1
  /  /
  7
TEXTSTYLE_2
 73
     1
 44
1.0000002
  0
MTEXT
  5
221
330
217
100
AcDbEntity
  8
0
  6
Continuous
 62
     7
100
AcDbMText
 10
161.2393000529
 20
22.5367398992
 30
0.0
 40
3.174999999999999
 41
30.95625
 71
     1
 72
     1
  1
Vergnano GmbH
  7
TEXTSTYLE_2
 73
     1
 44
1.0
  0
MTEXT
  5
222
330
217
100
AcDbEntity
  8
0
  6
Continuous
 62
     7
100
AcDbMText
 10
182.8175196901
 20
30.0247312717
 30
0.0
 40
2.1166666667
 41
6.350000000099999
 71
     1
 72
     1
  1
M.G.
  7
TEXTSTYLE_2
 73
     1
 44
1.0
  0
MTEXT
  5
223
330
217
100
AcDbEntity
  8
0
  6
Continuous
 62
     5
100
AcDbMText
 10
157.6108053736
 20
12.37001808
 30
0.0
 40
2.5
 41
46.28571428569999
 71
     1
 72
     1
  1
VA01A06302CH160
 73
     1
 44
0.9
  0
LINE
  5
224
330
217
100
AcDbEntity
  8
0
  6
Continuous
 62
     7
100
AcDbLine
 10
6.0
 20
8.0
 30
0.0
 11
206.0
 21
8.0
 31
0.0
  0
LINE
  5
225
330
217
100
AcDbEntity
  8
0
  6
Continuous
 62
     2
100
AcDbLine
 10
157.8730108591
 20
29.7752685278
 30
0.0
 11
162.7426938591
 21
30.44080252780001
 31
0.0
  0
LINE
  5
226
330
217
100
AcDbEntity
  8
0
  6
Continuous
 62
     7
100
AcDbLine
 10
138.0751410552
 20
16.7339269431
 30
0.0
 11
205.9999966068
 21
16.7323577496
 31
0.0
  0
LINE
  5
227
330
217
100
AcDbEntity
  8
0
  6
Continuous
 62
     7
100
AcDbLine
 10
138.0157443667
 20
25.7339269434
 30
0.0
 11
206.0157443667
 21
25.7339269434
 31
0.0
  0
LINE
  5
228
330
217
100
AcDbEntity
  8
0
  6
Continuous
 62
     2
100
AcDbLine
 10
150.2420808591
 20
26.8923485278
 30
0.0
 11
148.4971028591
 21
26.8923485278
 31
0.0
  0
LINE
  5
229
330
217
100
AcDbEntity
  8
0
  6
Continuous
 62
     2
100
AcDbLine
 10
142.4904578591
 20
26.8923485278
 30
0.0
 11
143.8447628591
 21
26.8923485278
 31
0.0
  0
LINE
  5
22A
330
217
100
AcDbEntity
  8
0
  6
Continuous
 62
     2
100
AcDbLine
 10
147.7696498591
 20
26.9856815278
 30
0.0
 11
146.9873898591
 21
26.9856815278
 31
0.0
  0
LINE
  5
22B
330
217
100
AcDbEntity
  8
0
  6
Continuous
 62
     2
100
AcDbLine
 10
144.9442258591
 20
26.9856815278
 30
0.0
 11
145.7264858591
 21
26.9856815278
 31
0.0
  0
LINE
  5
22C
330
217
100
AcDbEntity
  8
0
  6
Continuous
 62
     2
100
AcDbLine
 10
150.1647608591
 20
27.0790145278
 30
0.0
 11
148.6837698591
 21
27.0790145278
 31
0.0
  0
LINE
  5
22D
330
217
100
AcDbEntity
  8
0
  6
Continuous
 62
     2
100
AcDbLine
 10
142.5677778591
 20
27.0790145278
 30
0.0
 11
143.7674428591
 21
27.0790145278
 31
0.0
  0
LINE
  5
22E
330
217
100
AcDbEntity
  8
0
  6
Continuous
 62
     2
100
AcDbLine
 10
149.9714618591
 20
27.54568152780001
 30
0.0
 11
149.1504358591
 21
27.54568152780001
 31
0.0
  0
LINE
  5
22F
330
217
100
AcDbEntity
  8
0
  6
Continuous
 62
     2
100
AcDbLine
 10
142.7610768591
 20
27.54568152780001
 30
0.0
 11
143.5741428591
 21
27.54568152780001
 31
0.0
  0
LINE
  5
230
330
217
100
AcDbEntity
  8
0
  6
Continuous
 62
     2
100
AcDbLine
 10
146.7699668591
 20
27.5797025278
 30
0.0
 11
145.9439098591
 21
27.5797025278
 31
0.0
  0
LINE
  5
231
330
217
100
AcDbEntity
  8
0
  6
Continuous
 62
     2
100
AcDbLine
 10
146.8351938591
 20
27.6730355278
 30
0.0
 11
145.8786828591
 21
27.6730355278
 31
0.0
  0
LINE
  5
232
330
217
100
AcDbEntity
  8
0
  6
Continuous
 62
     2
100
AcDbLine
 10
146.6752438591
 20
28.1397025278
 30
0.0
 11
146.0386318591
 21
28.1397025278
 31
0.0
  0
LINE
  5
233
330
217
100
AcDbEntity
  8
DEFAULT_1
  6
CENTER
 62
     3
100
AcDbLine
 10
158.2122888591
 20
28.5469965278
 30
0.0
 11
169.6305478591
 21
28.5469965278
 31
0.0
  0
LINE
  5
234
330
217
100
AcDbEntity
  8
DEFAULT_1
  6
CENTER
 62
     3
100
AcDbLine
 10
156.7863448591
 20
28.5521855278
 30
0.0
 11
157.8730108591
 21
28.5521855278
 31
0.0
  0
LINE
  5
235
330
217
100
AcDbEntity
  8
0
  6
Continuous
 62
     2
100
AcDbLine
 10
143.5741428591
 20
29.49224752780001
 30
0.0
 11
142.7610778591
 21
29.49224752780001
 31
0.0
  0
LINE
  5
236
330
217
100
AcDbEntity
  8
0
  6
Continuous
 62
     2
100
AcDbLine
 10
149.1504358591
 20
29.49224752780001
 30
0.0
 11
149.9714618591
 21
29.49224752780001
 31
0.0
  0
LINE
  5
237
330
217
100
AcDbEntity
  8
0
  6
Continuous
 62
     2
100
AcDbLine
 10
143.7674428591
 20
29.95891352780001
 30
0.0
 11
142.5677778591
 21
29.95891352780001
 31
0.0
  0
LINE
  5
238
330
217
100
AcDbEntity
  8
0
  6
Continuous
 62
     2
100
AcDbLine
 10
146.0434438591
 20
29.95891352780001
 30
0.0
 11
146.6704318591
 21
29.95891352780001
 31
0.0
  0
LINE
  5
239
330
217
100
AcDbEntity
  8
0
  6
Continuous
 62
     2
100
AcDbLine
 10
148.6837698591
 20
29.95891352780001
 30
0.0
 11
150.1647608591
 21
29.95891352780001
 31
0.0
  0
LINE
  5
23A
330
217
100
AcDbEntity
  8
0
  6
Continuous
 62
     2
100
AcDbLine
 10
143.8447628591
 20
30.1455805278
 30
0.0
 11
142.4904578591
 21
30.1455805278
 31
0.0
  0
LINE
  5
23B
330
217
100
AcDbEntity
  8
0
  6
Continuous
 62
     2
100
AcDbLine
 10
145.9050998591
 20
30.1455805278
 30
0.0
 11
146.8087758591
 21
30.1455805278
 31
0.0
  0
LINE
  5
23C
330
217
100
AcDbEntity
  8
0
  6
Continuous
 62
     2
100
AcDbLine
 10
148.4971028591
 20
30.1455805278
 30
0.0
 11
150.2420808591
 21
30.1455805278
 31
0.0
  0
LINE
  5
23D
330
217
100
AcDbEntity
  8
0
  6
Continuous
 62
     7
100
AcDbLine
 10
138.0157443667
 20
31.2339269434
 30
0.0
 11
206.0157443667
 21
31.2339269434
 31
0.0
  0
LINE
  5
23E
330
217
100
AcDbEntity
  8
0
  6
Continuous
 62
     7
100
AcDbLine
 10
138.0157443667
 20
36.7339269434
 30
0.0
 11
206.0157443667
 21
36.7339269434
 31
0.0
  0
LINE
  5
23F
330
217
100
AcDbEntity
  8
0
  6
Continuous
 62
     3
100
AcDbLine
 10
147.6807990351
 20
38.8925036805
 30
0.0
 11
157.2964970351
 21
38.8925036805
 31
0.0
  0
LINE
  5
240
330
217
100
AcDbEntity
  8
0
  6
Continuous
 62
     3
100
AcDbLine
 10
162.9629370351
 20
39.2882016805
 30
0.0
 11
165.9906390351
 21
39.2882016805
 31
0.0
  0
LINE
  5
241
330
217
100
AcDbEntity
  8
0
  6
Continuous
 62
     3
100
AcDbLine
 10
162.9629355111
 20
39.44537368050001
 30
0.0
 11
165.9906390351
 21
39.44537368050001
 31
0.0
  0
LINE
  5
242
330
217
100
AcDbEntity
  8
0
  6
Continuous
 62
     3
100
AcDbLine
 10
162.9629361201
 20
39.6025461805
 30
0.0
 11
165.9906390351
 21
39.6025461805
 31
0.0
  0
LINE
  5
243
330
217
100
AcDbEntity
  8
0
  6
Continuous
 62
     2
100
AcDbLine
 10
157.8730108591
 20
27.3187255278
 30
0.0
 11
162.7426938591
 21
26.6531915278
 31
0.0
  0
LINE
  5
244
330
217
100
AcDbEntity
  8
0
  6
Continuous
 62
     7
100
AcDbLine
 10
6.0
 20
8.0
 30
0.0
 11
6.0
 21
294.0
 31
0.0
  0
LINE
  5
245
330
217
100
AcDbEntity
  8
0
  6
Continuous
 62
     3
100
AcDbLine
 10
162.9629367291
 20
39.7597186805
 30
0.0
 11
165.9906390351
 21
39.7597186805
 31
0.0
  0
LINE
  5
246
330
217
100
AcDbEntity
  8
0
  6
Continuous
 62
     3
100
AcDbLine
 10
163.0419110351
 20
39.91766668050001
 30
0.0
 11
165.9906391757
 21
39.91766668050001
 31
0.0
  0
LINE
  5
247
330
217
100
AcDbEntity
  8
0
  6
Continuous
 62
     3
100
AcDbLine
 10
163.5134280351
 20
40.0748381805
 30
0.0
 11
165.9906394555
 21
40.0748391805
 31
0.0
  0
LINE
  5
248
330
217
100
AcDbEntity
  8
0
  6
Continuous
 62
     3
100
AcDbLine
 10
163.5134280351
 20
40.23201168049999
 30
0.0
 11
165.9906397353
 21
40.23201168049999
 31
0.0
  0
LINE
  5
249
330
217
100
AcDbEntity
  8
0
  6
Continuous
 62
     3
100
AcDbLine
 10
163.5134280351
 20
40.3891836805
 30
0.0
 11
165.9906390351
 21
40.3891836805
 31
0.0
  0
LINE
  5
24A
330
217
100
AcDbEntity
  8
0
  6
Continuous
 62
     3
100
AcDbLine
 10
185.3626030975
 20
40.5910306805
 30
0.0
 11
187.5203960351
 21
40.5910306805
 31
0.0
  0
LINE
  5
24B
330
217
100
AcDbEntity
  8
0
  6
Continuous
 62
     3
100
AcDbLine
 10
185.362603701
 20
40.74820268049999
 30
0.0
 11
187.5203960351
 21
40.74820268049999
 31
0.0
  0
LINE
  5
24C
330
217
100
AcDbEntity
  8
0
  6
Continuous
 62
     3
100
AcDbLine
 10
185.3626043045
 20
40.9053756805
 30
0.0
 11
187.5203960351
 21
40.9053756805
 31
0.0
  0
LINE
  5
24D
330
217
100
AcDbEntity
  8
0
  6
Continuous
 62
     3
100
AcDbLine
 10
185.2925490351
 20
41.0625476805
 30
0.0
 11
187.5203960351
 21
41.0625476805
 31
0.0
  0
LINE
  5
24E
330
217
100
AcDbEntity
  8
0
  6
Continuous
 62
     3
100
AcDbLine
 10
185.2704880351
 20
41.1694246805
 30
0.0
 11
187.6198050351
 21
41.1694246805
 31
0.0
  0
LINE
  5
24F
330
217
100
AcDbEntity
  8
0
  6
Continuous
 62
     3
100
AcDbLine
 10
185.3626050351
 20
41.2859196805
 30
0.0
 11
187.0591860366
 21
41.2859196805
 31
0.0
  0
LINE
  5
250
330
217
100
AcDbEntity
  8
0
  6
Continuous
 62
     3
100
AcDbLine
 10
174.7537923939
 20
41.30135352369999
 30
0.0
 11
176.2345633939
 21
41.30135352369999
 31
0.0
  0
LINE
  5
251
330
217
100
AcDbEntity
  8
0
  6
Continuous
 62
     3
100
AcDbLine
 10
163.5134280351
 20
41.3984176805
 30
0.0
 11
165.4217980351
 21
41.3984176805
 31
0.0
  0
LINE
  5
252
330
217
100
AcDbEntity
  8
0
  6
Continuous
 62
     3
100
AcDbLine
 10
185.3626050351
 20
41.4430926805
 30
0.0
 11
187.0591865358
 21
41.4430926805
 31
0.0
  0
LINE
  5
253
330
217
100
AcDbEntity
  8
0
  6
Continuous
 62
     3
100
AcDbLine
 10
174.7537914318
 20
41.4585255237
 30
0.0
 11
176.2345633939
 21
41.4585255237
 31
0.0
  0
LINE
  5
254
330
217
100
AcDbEntity
  8
0
  6
Continuous
 62
     3
100
AcDbLine
 10
163.513428271
 20
41.5555896805
 30
0.0
 11
165.4217980351
 21
41.5555906805
 31
0.0
  0
LINE
  5
255
330
217
100
AcDbEntity
  8
0
  6
Continuous
 62
     3
100
AcDbLine
 10
185.3626059334
 20
41.6002646805
 30
0.0
 11
187.0591870351
 21
41.6002646805
 31
0.0
  0
LINE
  5
256
330
217
100
AcDbEntity
  8
0
  6
Continuous
 62
     3
100
AcDbLine
 10
174.7537919311
 20
41.61569852369999
 30
0.0
 11
176.2345633939
 21
41.61569852369999
 31
0.0
  0
LINE
  5
257
330
217
100
AcDbEntity
  8
0
  6
Continuous
 62
     3
100
AcDbLine
 10
176.5860121599
 20
41.6156986603
 30
0.0
 11
176.8146261599
 21
41.6156986603
 31
0.0
  0
LINE
  5
258
330
217
100
AcDbEntity
  8
0
  6
Continuous
 62
     3
100
AcDbLine
 10
163.5134285069
 20
41.7127621805
 30
0.0
 11
165.4217980351
 21
41.7127621805
 31
0.0
  0
LINE
  5
259
330
217
100
AcDbEntity
  8
0
  6
Continuous
 62
     3
100
AcDbLine
 10
169.1139425351
 20
41.7236591805
 30
0.0
 11
169.2609795351
 21
41.7236591805
 31
0.0
  0
LINE
  5
25A
330
217
100
AcDbEntity
  8
0
  6
Continuous
 62
     3
100
AcDbLine
 10
169.2796695351
 20
41.7236581805
 30
0.0
 11
169.8798291844
 21
41.7236581805
 31
0.0
  0
LINE
  5
25B
330
217
100
AcDbEntity
  8
0
  6
Continuous
 62
     3
100
AcDbLine
 10
174.7537919625
 20
41.74989425879999
 30
0.0
 11
176.8618820579
 21
41.74989425879999
 31
0.0
  0
LINE
  5
25C
330
217
100
AcDbEntity
  8
0
  6
Continuous
 62
     3
100
AcDbLine
 10
174.7537924111
 20
41.7728707887
 30
0.0
 11
176.2345633939
 21
41.7728707887
 31
0.0
  0
LINE
  5
25D
330
217
100
AcDbEntity
  8
0
  6
Continuous
 62
     3
100
AcDbLine
 10
163.5134287428
 20
41.8699346805
 30
0.0
 11
165.4217980351
 21
41.8699346805
 31
0.0
  0
LINE
  5
25E
330
217
100
AcDbEntity
  8
0
  6
Continuous
 62
     3
100
AcDbLine
 10
169.1139425351
 20
41.8808311805
 30
0.0
 11
169.8798296836
 21
41.8808321805
 31
0.0
  0
LINE
  5
25F
330
217
100
AcDbEntity
  8
0
  6
Continuous
 62
     3
100
AcDbLine
 10
163.0413150351
 20
41.8810866805
 30
0.0
 11
165.421798045
 21
41.8810866805
 31
0.0
  0
LINE
  5
260
330
217
100
AcDbEntity
  8
0
  6
Continuous
 62
     3
100
AcDbLine
 10
174.7537923939
 20
41.90706652369999
 30
0.0
 11
176.8618827250999
 21
41.90706652369999
 31
0.0
  0
LINE
  5
261
330
217
100
AcDbEntity
  8
0
  6
Continuous
 62
     3
100
AcDbLine
 10
169.1139425351
 20
42.03800318049999
 30
0.0
 11
169.8798301829
 21
42.03800318049999
 31
0.0
  0
LINE
  5
262
330
217
100
AcDbEntity
  8
0
  6
Continuous
 62
     3
100
AcDbLine
 10
163.5134280351
 20
42.0382581805
 30
0.0
 11
165.4217983248
 21
42.03825918049999
 31
0.0
  0
LINE
  5
263
330
217
100
AcDbEntity
  8
0
  6
Continuous
 62
     3
100
AcDbLine
 10
174.7537923939
 20
42.06423952369999
 30
0.0
 11
176.8618825297
 21
42.06423952369999
 31
0.0
  0
LINE
  5
264
330
217
100
AcDbEntity
  8
0
  6
Continuous
 62
     3
100
AcDbLine
 10
169.1139425351
 20
42.1951776805
 30
0.0
 11
169.8798325351
 21
42.1951776805
 31
0.0
  0
LINE
  5
265
330
217
100
AcDbEntity
  8
0
  6
Continuous
 62
     3
100
AcDbLine
 10
163.5134280351
 20
42.1954306805
 30
0.0
 11
165.4217986046
 21
42.1954306805
 31
0.0
  0
LINE
  5
266
330
217
100
AcDbEntity
  8
0
  6
Continuous
 62
     3
100
AcDbLine
 10
174.7537923939
 20
42.22141152369999
 30
0.0
 11
176.8618819625
 21
42.22141152369999
 31
0.0
  0
LINE
  5
267
330
217
100
AcDbEntity
  8
0
  6
Continuous
 62
     3
100
AcDbLine
 10
163.5134280351
 20
42.3526036805
 30
0.0
 11
165.4217980351
 21
42.3526036805
 31
0.0
  0
LINE
  5
268
330
217
100
AcDbEntity
  8
0
  6
Continuous
 62
     3
100
AcDbLine
 10
163.5134280351
 20
43.3618376805
 30
0.0
 11
165.9906390351
 21
43.3618376805
 31
0.0
  0
LINE
  5
269
330
217
100
AcDbEntity
  8
0
  6
Continuous
 62
     3
100
AcDbLine
 10
168.4446965351
 20
43.3618366805
 30
0.0
 11
169.8798325351
 21
43.3618366805
 31
0.0
  0
LINE
  5
26A
330
217
100
AcDbEntity
  8
0
  6
Continuous
 62
     3
100
AcDbLine
 10
168.444696771
 20
43.5190101805
 30
0.0
 11
169.8798325351
 21
43.5190111805
 31
0.0
  0
LINE
  5
26B
330
217
100
AcDbEntity
  8
0
  6
Continuous
 62
     3
100
AcDbLine
 10
163.513428271
 20
43.5190106805
 30
0.0
 11
165.9906387851
 21
43.5190086805
 31
0.0
  0
LINE
  5
26C
330
217
100
AcDbEntity
  8
0
  6
Continuous
 62
     3
100
AcDbLine
 10
168.4446970069
 20
43.6761821805
 30
0.0
 11
169.8798325351
 21
43.6761821805
 31
0.0
  0
LINE
  5
26D
330
217
100
AcDbEntity
  8
0
  6
Continuous
 62
     3
100
AcDbLine
 10
163.5134285069
 20
43.6761821805
 30
0.0
 11
165.9906387851
 21
43.6761811805
 31
0.0
  0
LINE
  5
26E
330
217
100
AcDbEntity
  8
0
  6
Continuous
 62
     3
100
AcDbLine
 10
163.0419110351
 20
43.8333546805
 30
0.0
 11
165.9906387851
 21
43.8333546805
 31
0.0
  0
LINE
  5
26F
330
217
100
AcDbEntity
  8
0
  6
Continuous
 62
     3
100
AcDbLine
 10
167.9731795351
 20
43.83335568049999
 30
0.0
 11
169.8798325351
 21
43.83335568049999
 31
0.0
  0
LINE
  5
270
330
217
100
AcDbEntity
  8
0
  6
Continuous
 62
     3
100
AcDbLine
 10
162.9629365351
 20
43.99130218049999
 30
0.0
 11
165.9906386757
 21
43.99130218049999
 31
0.0
  0
LINE
  5
271
330
217
100
AcDbEntity
  8
0
  6
Continuous
 62
     3
100
AcDbLine
 10
167.8942055351
 20
43.9913026805
 30
0.0
 11
169.8667985351
 21
43.9913026805
 31
0.0
  0
LINE
  5
272
330
217
100
AcDbEntity
  8
0
  6
Continuous
 62
     3
100
AcDbLine
 10
162.9629365351
 20
44.1484746805
 30
0.0
 11
165.9906389555
 21
44.14847568049999
 31
0.0
  0
LINE
  5
273
330
217
100
AcDbEntity
  8
0
  6
Continuous
 62
     3
100
AcDbLine
 10
167.8942055351
 20
44.1484761805
 30
0.0
 11
169.8667985351
 21
44.1484761805
 31
0.0
  0
LINE
  5
274
330
217
100
AcDbEntity
  8
0
  6
Continuous
 62
     3
100
AcDbLine
 10
162.9629365351
 20
44.3056471805
 30
0.0
 11
165.9906392353
 21
44.3056481805
 31
0.0
  0
LINE
  5
275
330
217
100
AcDbEntity
  8
0
  6
Continuous
 62
     3
100
AcDbLine
 10
167.8942055351
 20
44.3056481805
 30
0.0
 11
169.8667985351
 21
44.3056481805
 31
0.0
  0
LINE
  5
276
330
217
100
AcDbEntity
  8
0
  6
Continuous
 62
     3
100
AcDbLine
 10
162.9629365351
 20
44.4628191805
 30
0.0
 11
165.9906385351
 21
44.4628191805
 31
0.0
  0
LINE
  5
277
330
217
100
AcDbEntity
  8
0
  6
Continuous
 62
     3
100
AcDbLine
 10
167.8942055351
 20
44.4628196805
 30
0.0
 11
169.8667985351
 21
44.4628196805
 31
0.0
  0
LINE
  5
278
330
217
100
AcDbEntity
  8
0
  6
Continuous
 62
     3
100
AcDbLine
 10
143.7290860351
 20
47.6455486805
 30
0.0
 11
153.3447840351
 21
47.6455486805
 31
0.0
  0
LINE
  5
279
330
217
100
AcDbEntity
  8
0
  6
Continuous
 62
     7
100
AcDbLine
 10
138.0751410552
 20
49.7453536814
 30
0.0
 11
205.9962660534
 21
49.74522146169999
 31
0.0
  0
LINE
  5
27A
330
217
100
AcDbEntity
  8
0
  6
Continuous
 62
     3
100
AcDbLine
 10
169.6193996711
 20
41.5664902487
 30
0.0
 11
169.6207657796
 21
41.5664880989
 31
0.0
  0
LINE
  5
27B
330
217
100
AcDbEntity
  8
0
  6
Continuous
 62
     2
100
AcDbLine
 10
142.0157848591
 20
27.3670215278
 30
0.0
 11
142.4904578591
 21
26.8923485278
 31
0.0
  0
LINE
  5
27C
330
217
100
AcDbEntity
  8
0
  6
Continuous
 62
     2
100
AcDbLine
 10
142.2024508591
 20
27.4443415278
 30
0.0
 11
142.5677778591
 21
27.0790145278
 31
0.0
  0
LINE
  5
27D
330
217
100
AcDbEntity
  8
0
  6
Continuous
 62
     2
100
AcDbLine
 10
142.6691178591
 20
27.6376415278
 30
0.0
 11
142.7610768591
 21
27.54568152780001
 31
0.0
  0
LINE
  5
27E
330
217
100
AcDbEntity
  8
0
  6
Continuous
 62
     2
100
AcDbLine
 10
143.9141228591
 20
27.8856615278
 30
0.0
 11
144.3760988591
 21
27.4236845278
 31
0.0
  0
LINE
  5
27F
330
217
100
AcDbEntity
  8
0
  6
Continuous
 62
     2
100
AcDbLine
 10
143.5741428591
 20
29.49224752780001
 30
0.0
 11
143.9141228591
 21
29.15226752780001
 31
0.0
  0
LINE
  5
280
330
217
100
AcDbEntity
  8
0
  6
Continuous
 62
     2
100
AcDbLine
 10
143.7674428591
 20
29.95891352780001
 30
0.0
 11
144.2441058591
 21
29.4822505278
 31
0.0
  0
LINE
  5
281
330
217
100
AcDbEntity
  8
0
  6
Continuous
 62
     2
100
AcDbLine
 10
143.8447628591
 20
30.1455805278
 30
0.0
 11
144.3760988591
 21
29.6142435278
 31
0.0
  0
LINE
  5
282
330
217
100
AcDbEntity
  8
0
  6
Continuous
 62
     2
100
AcDbLine
 10
149.9714618591
 20
29.49224752780001
 30
0.0
 11
150.2314208591
 21
29.2322875278
 31
0.0
  0
LINE
  5
283
330
217
100
AcDbEntity
  8
0
  6
Continuous
 62
     2
100
AcDbLine
 10
150.1647608591
 20
29.95891352780001
 30
0.0
 11
150.6980878591
 21
29.4255875278
 31
0.0
  0
LINE
  5
284
330
217
100
AcDbEntity
  8
0
  6
Continuous
 62
     2
100
AcDbLine
 10
150.2420808591
 20
30.1455805278
 30
0.0
 11
150.8847548591
 21
29.5029075278
 31
0.0
  0
LINE
  5
285
330
217
100
AcDbEntity
  8
0
  6
Continuous
 62
     7
100
AcDbLine
 10
74.4044761839
 20
182.9808105612
 30
0.0
 11
73.9044761839
 21
182.4808105612
 31
0.0
  0
LINE
  5
286
330
217
100
AcDbEntity
  8
0
  6
Continuous
 62
     7
100
AcDbLine
 10
111.3907727326
 20
213.8808105612
 30
0.0
 11
112.3907727326
 21
214.8808105612
 31
0.0
  0
LINE
  5
287
330
217
100
AcDbEntity
  8
0
  6
Continuous
 62
     7
100
AcDbLine
 10
73.9044761839
 20
182.4808105612
 30
0.0
 11
73.9044761839
 21
168.3583096359
 31
0.0
  0
LINE
  5
288
330
217
100
AcDbEntity
  8
0
  6
Continuous
 62
     7
100
AcDbLine
 10
73.9044761839
 20
161.6033114864
 30
0.0
 11
73.9044761839
 21
157.5308105612
 31
0.0
  0
LINE
  5
289
330
217
100
AcDbEntity
  8
0
  6
Continuous
 62
     7
100
AcDbLine
 10
77.9044761839
 20
163.1058105612
 30
0.0
 11
77.9044761839
 21
166.8558105612
 31
0.0
  0
LINE
  5
28A
330
217
100
AcDbEntity
  8
0
  6
Continuous
 62
     7
100
AcDbLine
 10
81.50447618390002
 20
183.7849167702
 30
0.0
 11
81.50447618390002
 21
183.3808105612
 31
0.0
  0
LINE
  5
28B
330
217
100
AcDbEntity
  8
0
  6
Continuous
 62
     7
100
AcDbLine
 10
82.62497446359999
 20
213.7408576918
 30
0.0
 11
81.18403740839999
 21
184.9808105612
 31
0.0
  0
LINE
  5
28C
330
217
100
AcDbEntity
  8
0
  6
Continuous
 62
     7
100
AcDbLine
 10
73.9044761839
 20
161.6033114864
 30
0.0
 11
76.50688091970001
 21
163.1058105612
 31
0.0
  0
LINE
  5
28D
330
217
100
AcDbEntity
  8
0
  6
Continuous
 62
     7
100
AcDbLine
 10
90.20635137010001
 20
118.9808105612
 30
0.0
 11
120.6026009976
 21
118.9808105612
 31
0.0
  0
LINE
  5
28E
330
217
100
AcDbEntity
  8
0
  6
Continuous
 62
     7
100
AcDbLine
 10
86.85676465129999
 20
122.0308105612
 30
0.0
 11
89.90447618389998
 21
122.0308105612
 31
0.0
  0
LINE
  5
28F
330
217
100
AcDbEntity
  8
0
  6
Continuous
 62
     7
100
AcDbLine
 10
120.9044761839
 20
122.0308105612
 30
0.0
 11
123.9521877164
 21
122.0308105612
 31
0.0
  0
LINE
  5
290
330
217
100
AcDbEntity
  8
0
  6
Continuous
 62
     7
100
AcDbLine
 10
125.4740582332
 20
124.0308105612
 30
0.0
 11
124.1544761839
 21
124.0308105612
 31
0.0
  0
LINE
  5
291
330
217
100
AcDbEntity
  8
0
  6
Continuous
 62
     7
100
AcDbLine
 10
86.65447618389999
 20
124.0308105612
 30
0.0
 11
85.3348941345
 21
124.0308105612
 31
0.0
  0
LINE
  5
292
330
217
100
AcDbEntity
  8
0
  6
Continuous
 62
     7
100
AcDbLine
 10
86.85447618389998
 20
122.0308105612
 30
0.0
 11
86.65447618389999
 21
122.2308105612
 31
0.0
  0
LINE
  5
293
330
217
100
AcDbEntity
  8
0
  6
Continuous
 62
     7
100
AcDbLine
 10
89.90447618389998
 20
119.2808105612
 30
0.0
 11
90.20447618389999
 21
118.9808105612
 31
0.0
  0
LINE
  5
294
330
217
100
AcDbEntity
  8
0
  6
Continuous
 62
     7
100
AcDbLine
 10
83.6544761839
 20
132.0308105612
 30
0.0
 11
84.8384118939
 21
124.4536220169
 31
0.0
  0
LINE
  5
295
330
217
100
AcDbEntity
  8
0
  6
Continuous
 62
     7
100
AcDbLine
 10
83.40447618389999
 20
154.0308105612
 30
0.0
 11
83.40447618389999
 21
147.3308105612
 31
0.0
  0
LINE
  5
296
330
217
100
AcDbEntity
  8
0
  6
Continuous
 62
     7
100
AcDbLine
 10
83.6544761839
 20
147.3308105612
 30
0.0
 11
83.6544761839
 21
146.3308105612
 31
0.0
  0
LINE
  5
297
330
217
100
AcDbEntity
  8
0
  6
Continuous
 62
     7
100
AcDbLine
 10
83.6544761839
 20
141.3308105612
 30
0.0
 11
83.6544761839
 21
140.1308105612
 31
0.0
  0
LINE
  5
298
330
217
100
AcDbEntity
  8
0
  6
Continuous
 62
     7
100
AcDbLine
 10
83.6544761839
 20
135.1308105612
 30
0.0
 11
83.6544761839
 21
132.0308105612
 31
0.0
  0
LINE
  5
299
330
217
100
AcDbEntity
  8
0
  6
Continuous
 62
     7
100
AcDbLine
 10
86.65447618389999
 20
122.2308105612
 30
0.0
 11
86.65447618389999
 21
124.0308105612
 31
0.0
  0
LINE
  5
29A
330
217
100
AcDbEntity
  8
0
  6
Continuous
 62
     7
100
AcDbLine
 10
87.40447618389998
 20
154.2808105612
 30
0.0
 11
87.40447618389998
 21
156.2308105612
 31
0.0
  0
LINE
  5
29B
330
217
100
AcDbEntity
  8
0
  6
Continuous
 62
     7
100
AcDbLine
 10
89.90447618389998
 20
122.0308105612
 30
0.0
 11
89.90447618389998
 21
119.2808105612
 31
0.0
  0
LINE
  5
29C
330
217
100
AcDbEntity
  8
0
  6
Continuous
 62
     7
100
AcDbLine
 10
87.15447618389999
 20
154.0308105612
 30
0.0
 11
87.40447618389998
 21
154.2808105612
 31
0.0
  0
LINE
  5
29D
330
217
100
AcDbEntity
  8
0
  6
Continuous
 62
     7
100
AcDbLine
 10
73.9044761839
 20
157.5308105612
 30
0.0
 11
74.4044761839
 21
157.0308105612
 31
0.0
  0
LINE
  5
29E
330
217
100
AcDbEntity
  8
0
  6
Continuous
 62
     3
100
AcDbLine
 10
168.7407767612
 20
41.385337519
 30
0.0
 11
170.3683907612
 21
39.481028519
 31
0.0
  0
LINE
  5
29F
330
217
100
AcDbEntity
  8
0
  6
Continuous
 62
     3
100
AcDbLine
 10
168.8602561964
 20
41.4874574878
 30
0.0
 11
170.4878702953
 21
39.5831478302
 31
0.0
  0
LINE
  5
2A0
330
217
100
AcDbEntity
  8
0
  6
Continuous
 62
     3
100
AcDbLine
 10
168.9797344109
 20
41.58957503689999
 30
0.0
 11
170.6073475351
 21
39.6852661805
 31
0.0
  0
LINE
  5
2A1
330
217
100
AcDbEntity
  8
0
  6
Continuous
 62
     3
100
AcDbLine
 10
169.0992126254
 20
41.691692586
 30
0.0
 11
170.7268255351
 21
39.7873841805
 31
0.0
  0
LINE
  5
2A2
330
217
100
AcDbEntity
  8
0
  6
Continuous
 62
     3
100
AcDbLine
 10
169.2796695351
 20
41.7236581805
 30
0.0
 11
169.8568355351
 21
41.0483741805
 31
0.0
  0
LINE
  5
2A3
330
217
100
AcDbEntity
  8
0
  6
Continuous
 62
     3
100
AcDbLine
 10
169.8753551243
 20
41.0267105388
 30
0.0
 11
170.8468950934
 21
39.8900075047
 31
0.0
  0
LINE
  5
2A4
330
217
100
AcDbEntity
  8
0
  6
Continuous
 62
     3
100
AcDbLine
 10
169.4864280351
 20
41.7236566805
 30
0.0
 11
170.9663732356
 21
39.9921253383
 31
0.0
  0
LINE
  5
2A5
330
217
100
AcDbEntity
  8
0
  6
Continuous
 62
     3
100
AcDbLine
 10
170.0930232953
 20
41.2558518302
 30
0.0
 11
171.0858511115
 21
40.0942429444
 31
0.0
  0
LINE
  5
2A6
330
217
100
AcDbEntity
  8
0
  6
Continuous
 62
     3
100
AcDbLine
 10
170.2125027796
 20
41.35797209889999
 30
0.0
 11
171.2053307796
 21
40.19636209889999
 31
0.0
  0
LINE
  5
2A7
330
217
100
AcDbEntity
  8
0
  6
Continuous
 62
     7
100
AcDbLine
 10
81.18403740839999
 20
184.9808105612
 30
0.0
 11
81.50447618390002
 21
183.7849167702
 31
0.0
  0
LINE
  5
2A8
330
217
100
AcDbEntity
  8
0
  6
Continuous
 62
     7
100
AcDbLine
 10
98.85267505979999
 20
213.8808105612
 30
0.0
 11
98.85267505979999
 21
210.0808105612
 31
0.0
  0
LINE
  5
2A9
330
217
100
AcDbEntity
  8
0
  6
Continuous
 62
     7
100
AcDbLine
 10
134.3020714481
 20
166.8558105612
 30
0.0
 11
136.9044761839
 21
168.3583096359
 31
0.0
  0
LINE
  5
2AA
330
217
100
AcDbEntity
  8
0
  6
Continuous
 62
     7
100
AcDbLine
 10
83.6544761839
 20
147.3308105612
 30
0.0
 11
83.40719026930001
 21
147.3308105612
 31
0.0
  0
LINE
  5
2AB
330
217
100
AcDbEntity
  8
0
  6
Continuous
 62
     3
100
AcDbLine
 10
150.0132678773
 20
41.30224824089999
 30
0.0
 11
148.0656758773
 21
45.6093472409
 31
0.0
  0
LINE
  5
2AC
330
217
100
AcDbEntity
  8
0
  6
Continuous
 62
     3
100
AcDbLine
 10
150.1564795734
 20
41.3670061034
 30
0.0
 11
148.2088868286
 21
45.67410591229999
 31
0.0
  0
LINE
  5
2AD
330
217
100
AcDbEntity
  8
0
  6
Continuous
 62
     3
100
AcDbLine
 10
150.239289673
 20
41.3755641557
 30
0.0
 11
148.3415466267
 21
45.57242101109999
 31
0.0
  0
LINE
  5
2AE
330
217
100
AcDbEntity
  8
0
  6
Continuous
 62
     3
100
AcDbLine
 10
150.2996905734
 20
41.4317631034
 30
0.0
 11
148.3520983905
 21
45.738863044
 31
0.0
  0
LINE
  5
2AF
330
217
100
AcDbEntity
  8
0
  6
Continuous
 62
     3
100
AcDbLine
 10
150.3825020575
 20
41.4403217678
 30
0.0
 11
148.4847585788
 21
45.6371789895
 31
0.0
  0
LINE
  5
2B0
330
217
100
AcDbEntity
  8
0
  6
Continuous
 62
     3
100
AcDbLine
 10
150.5257074076
 20
41.50507619889999
 30
0.0
 11
148.6279694072
 21
45.7019379332
 31
0.0
  0
LINE
  5
2B1
330
217
100
AcDbEntity
  8
0
  6
Continuous
 62
     3
100
AcDbLine
 10
143.7290860351
 20
47.6455486805
 30
0.0
 11
147.6807990351
 21
38.8925036805
 31
0.0
  0
LINE
  5
2B2
330
217
100
AcDbEntity
  8
0
  6
Continuous
 62
     2
100
AcDbLine
 10
146.9873898591
 20
26.9856815278
 30
0.0
 11
146.7699668591
 21
27.5797025278
 31
0.0
  0
LINE
  5
2B3
330
217
100
AcDbEntity
  8
0
  6
Continuous
 62
     2
100
AcDbLine
 10
147.0867788591
 20
26.9856815278
 30
0.0
 11
146.8351938591
 21
27.6730355278
 31
0.0
  0
LINE
  5
2B4
330
217
100
AcDbEntity
  8
0
  6
Continuous
 62
     7
100
AcDbLine
 10
111.3907727326
 20
210.0808105612
 30
0.0
 11
111.3907727326
 21
213.8808105612
 31
0.0
  0
LINE
  5
2B5
330
217
100
AcDbEntity
  8
0
  6
Continuous
 62
     7
100
AcDbLine
 10
127.4017620985
 20
154.0308105612
 30
0.0
 11
123.4044761839
 21
154.0308105612
 31
0.0
  0
LINE
  5
2B6
330
217
100
AcDbEntity
  8
0
  6
Continuous
 62
     7
100
AcDbLine
 10
87.15447618389999
 20
154.0308105612
 30
0.0
 11
83.40719026930001
 21
154.0308105612
 31
0.0
  0
LINE
  5
2B7
330
217
100
AcDbEntity
  8
0
  6
Continuous
 62
     7
100
AcDbLine
 10
86.6044761839
 20
157.0308105612
 30
0.0
 11
74.4044761839
 21
157.0308105612
 31
0.0
  0
LINE
  5
2B8
330
217
100
AcDbEntity
  8
0
  6
Continuous
 62
     7
100
AcDbLine
 10
124.2044761839
 20
157.0308105612
 30
0.0
 11
136.3764756454
 21
157.0308105612
 31
0.0
  0
LINE
  5
2B9
330
217
100
AcDbEntity
  8
0
  6
Continuous
 62
     7
100
AcDbLine
 10
76.50688091970001
 20
166.8558105612
 30
0.0
 11
73.9044761839
 21
168.3583096359
 31
0.0
  0
LINE
  5
2BA
330
217
100
AcDbEntity
  8
0
  6
Continuous
 62
     3
100
AcDbLine
 10
153.3447840351
 20
47.6455486805
 30
0.0
 11
157.2964970351
 21
38.8925036805
 31
0.0
  0
LINE
  5
2BB
330
217
100
AcDbEntity
  8
0
  6
Continuous
 62
     3
100
AcDbLine
 10
154.8098840351
 20
46.5483686805
 30
0.0
 11
157.7803870351
 21
39.9687046805
 31
0.0
  0
LINE
  5
2BC
330
217
100
AcDbEntity
  8
0
  6
Continuous
 62
     3
100
AcDbLine
 10
154.9531340351
 20
46.6130416805
 30
0.0
 11
157.9236380351
 21
40.0333766805
 31
0.0
  0
LINE
  5
2BD
330
217
100
AcDbEntity
  8
0
  6
Continuous
 62
     3
100
AcDbLine
 10
155.0963840351
 20
46.6777146805
 30
0.0
 11
158.0668880351
 21
40.0980496805
 31
0.0
  0
LINE
  5
2BE
330
217
100
AcDbEntity
  8
0
  6
Continuous
 62
     3
100
AcDbLine
 10
155.2396348073
 20
46.7423865776
 30
0.0
 11
158.2101378073
 21
40.16272257759999
 31
0.0
  0
LINE
  5
2BF
330
217
100
AcDbEntity
  8
0
  6
Continuous
 62
     3
100
AcDbLine
 10
155.3835918073
 20
46.8073785776
 30
0.0
 11
158.3733758073
 21
40.18500657759999
 31
0.0
  0
LINE
  5
2C0
330
217
100
AcDbEntity
  8
0
  6
Continuous
 62
     3
100
AcDbLine
 10
155.5268420351
 20
46.8720516805
 30
0.0
 11
158.5486760351
 21
40.1786886805
 31
0.0
  0
LINE
  5
2C1
330
217
100
AcDbEntity
  8
0
  6
Continuous
 62
     3
100
AcDbLine
 10
155.6700920351
 20
46.93672468049999
 30
0.0
 11
158.5236641532
 21
40.6160625479
 31
0.0
  0
LINE
  5
2C2
330
217
100
AcDbEntity
  8
0
  6
Continuous
 62
     3
100
AcDbLine
 10
155.8133420351
 20
47.00139768049999
 30
0.0
 11
158.6669150351
 21
40.6807346805
 31
0.0
  0
LINE
  5
2C3
330
217
100
AcDbEntity
  8
0
  6
Continuous
 62
     2
100
AcDbLine
 10
146.6752438591
 20
28.1397025278
 30
0.0
 11
146.3569378591
 21
29.1150545278
 31
0.0
  0
LINE
  5
2C4
330
217
100
AcDbEntity
  8
0
  6
Continuous
 62
     2
100
AcDbLine
 10
147.5745438591
 20
26.9856815278
 30
0.0
 11
146.6704318591
 21
29.95891352780001
 31
0.0
  0
LINE
  5
2C5
330
217
100
AcDbEntity
  8
0
  6
Continuous
 62
     2
100
AcDbLine
 10
147.7696498591
 20
26.9856815278
 30
0.0
 11
146.8087758591
 21
30.1455805278
 31
0.0
  0
LINE
  5
2C6
330
217
100
AcDbEntity
  8
0
  6
Continuous
 62
     7
100
AcDbLine
 10
120.9044761839
 20
122.0308105612
 30
0.0
 11
120.9044761839
 21
119.2808105612
 31
0.0
  0
LINE
  5
2C7
330
217
100
AcDbEntity
  8
0
  6
Continuous
 62
     7
100
AcDbLine
 10
123.4044761839
 20
154.0308105612
 30
0.0
 11
123.4044761839
 21
156.2308105612
 31
0.0
  0
LINE
  5
2C8
330
217
100
AcDbEntity
  8
0
  6
Continuous
 62
     7
100
AcDbLine
 10
124.1544761839
 20
122.2308105612
 30
0.0
 11
124.1544761839
 21
124.0308105612
 31
0.0
  0
LINE
  5
2C9
330
217
100
AcDbEntity
  8
0
  6
Continuous
 62
     7
100
AcDbLine
 10
127.1544761839
 20
147.3665969988
 30
0.0
 11
127.1544761839
 21
146.3308105612
 31
0.0
  0
LINE
  5
2CA
330
217
100
AcDbEntity
  8
0
  6
Continuous
 62
     7
100
AcDbLine
 10
127.1544761839
 20
141.3308105612
 30
0.0
 11
127.1544761839
 21
140.1308105612
 31
0.0
  0
LINE
  5
2CB
330
217
100
AcDbEntity
  8
0
  6
Continuous
 62
     7
100
AcDbLine
 10
127.1544761839
 20
135.1308105612
 30
0.0
 11
127.1544761839
 21
132.0308105612
 31
0.0
  0
LINE
  5
2CC
330
217
100
AcDbEntity
  8
0
  6
Continuous
 62
     7
100
AcDbLine
 10
127.4044761839
 20
154.0308105612
 30
0.0
 11
127.4044761839
 21
147.3308105612
 31
0.0
  0
LINE
  5
2CD
330
217
100
AcDbEntity
  8
0
  6
Continuous
 62
     7
100
AcDbLine
 10
129.3044761839
 20
183.7849167702
 30
0.0
 11
129.3044761839
 21
182.9808105612
 31
0.0
  0
LINE
  5
2CE
330
217
100
AcDbEntity
  8
0
  6
Continuous
 62
     7
100
AcDbLine
 10
127.1544761839
 20
132.0308105612
 30
0.0
 11
125.9705404738
 21
124.4536220169
 31
0.0
  0
LINE
  5
2CF
330
217
100
AcDbEntity
  8
0
  6
Continuous
 62
     7
100
AcDbLine
 10
129.6249149594
 20
184.9808105612
 30
0.0
 11
129.3044761839
 21
183.7849167702
 31
0.0
  0
LINE
  5
2D0
330
217
100
AcDbEntity
  8
0
  6
Continuous
 62
     7
100
AcDbLine
 10
136.9044761839
 20
157.5308105612
 30
0.0
 11
136.4044761839
 21
157.0308105612
 31
0.0
  0
LINE
  5
2D1
330
217
100
AcDbEntity
  8
0
  6
Continuous
 62
     7
100
AcDbLine
 10
77.9044761839
 20
163.1058105612
 30
0.0
 11
76.50688091970001
 21
163.1058105612
 31
0.0
  0
LINE
  5
2D2
330
217
100
AcDbEntity
  8
0
  6
Continuous
 62
     7
100
AcDbLine
 10
132.9044761839
 20
163.1058105612
 30
0.0
 11
134.2856044427
 21
163.1058105612
 31
0.0
  0
LINE
  5
2D3
330
217
100
AcDbEntity
  8
0
  6
Continuous
 62
     7
100
AcDbLine
 10
76.55662567979999
 20
166.8558105612
 30
0.0
 11
77.9044761839
 21
166.8558105612
 31
0.0
  0
LINE
  5
2D4
330
217
100
AcDbEntity
  8
0
  6
Continuous
 62
     7
100
AcDbLine
 10
132.9044761839
 20
166.8558105612
 30
0.0
 11
134.2856044427
 21
166.8558105612
 31
0.0
  0
LINE
  5
2D5
330
217
100
AcDbEntity
  8
0
  6
Continuous
 62
     3
100
AcDbLine
 10
179.2065200350999
 20
42.9856036805
 30
0.0
 11
180.7267520351
 21
39.7997256805
 31
0.0
  0
LINE
  5
2D6
330
217
100
AcDbEntity
  8
0
  6
Continuous
 62
     3
100
AcDbLine
 10
179.3341853489
 20
43.0465223531
 30
0.0
 11
180.8544173489
 21
39.8606443531
 31
0.0
  0
LINE
  5
2D7
330
217
100
AcDbEntity
  8
0
  6
Continuous
 62
     3
100
AcDbLine
 10
179.2999190243
 20
43.446793414
 30
0.0
 11
180.9820830243
 21
39.921563414
 31
0.0
  0
LINE
  5
2D8
330
217
100
AcDbEntity
  8
0
  6
Continuous
 62
     3
100
AcDbLine
 10
179.3856250884999
 20
43.5956464447
 30
0.0
 11
181.1097480885
 21
39.9824824447
 31
0.0
  0
LINE
  5
2D9
330
217
100
AcDbEntity
  8
0
  6
Continuous
 62
     3
100
AcDbLine
 10
179.4641450351
 20
43.6821846805
 30
0.0
 11
181.2073410350999
 21
40.0290516805
 31
0.0
  0
LINE
  5
2DA
330
217
100
AcDbEntity
  8
0
  6
Continuous
 62
     3
100
AcDbLine
 10
179.541960012
 20
43.7685367827
 30
0.0
 11
181.265280012
 21
40.1570577827
 31
0.0
  0
LINE
  5
2DB
330
217
100
AcDbEntity
  8
0
  6
Continuous
 62
     3
100
AcDbLine
 10
179.6696253258
 20
43.8294554553
 30
0.0
 11
181.4325913258
 21
40.1348914553
 31
0.0
  0
LINE
  5
2DC
330
217
100
AcDbEntity
  8
0
  6
Continuous
 62
     3
100
AcDbLine
 10
179.7972900655
 20
43.89037533109999
 30
0.0
 11
181.3175190655
 21
40.7045043311
 31
0.0
  0
LINE
  5
2DD
330
217
100
AcDbEntity
  8
0
  6
Continuous
 62
     3
100
AcDbLine
 10
179.9249551938
 20
43.9512943924
 30
0.0
 11
181.4451841938
 21
40.76542339239999
 31
0.0
  0
LINE
  5
2DE
330
217
100
AcDbEntity
  8
0
  6
Continuous
 62
     7
100
AcDbLine
 10
128.1839779042
 20
213.7408576918
 30
0.0
 11
129.6249149594
 21
184.9808105612
 31
0.0
  0
LINE
  5
2DF
330
217
100
AcDbEntity
  8
0
  6
Continuous
 62
     7
100
AcDbLine
 10
138.0979901994
 20
7.950807681199999
 30
0.0
 11
138.0751410552
 21
49.7453536814
 31
0.0
  0
LINE
  5
2E0
330
217
100
AcDbEntity
  8
0
  6
Continuous
 62
     7
100
AcDbLine
 10
132.9044761839
 20
163.1058105612
 30
0.0
 11
132.9044761839
 21
166.8558105612
 31
0.0
  0
LINE
  5
2E1
330
217
100
AcDbEntity
  8
0
  6
Continuous
 62
     7
100
AcDbLine
 10
136.9044761839
 20
182.4808105612
 30
0.0
 11
136.9044761839
 21
168.3583096359
 31
0.0
  0
LINE
  5
2E2
330
217
100
AcDbEntity
  8
0
  6
Continuous
 62
     7
100
AcDbLine
 10
136.9044761839
 20
161.6033114864
 30
0.0
 11
136.9044761839
 21
157.5308105612
 31
0.0
  0
LINE
  5
2E3
330
217
100
AcDbEntity
  8
0
  6
Continuous
 62
     2
100
AcDbLine
 10
142.0157848591
 20
29.6709075278
 30
0.0
 11
142.0157848591
 21
27.3670215278
 31
0.0
  0
LINE
  5
2E4
330
217
100
AcDbEntity
  8
0
  6
Continuous
 62
     2
100
AcDbLine
 10
142.2024508591
 20
29.5935875278
 30
0.0
 11
142.2024508591
 21
27.4443415278
 31
0.0
  0
LINE
  5
2E5
330
217
100
AcDbEntity
  8
0
  6
Continuous
 62
     2
100
AcDbLine
 10
142.6691178591
 20
29.4002875278
 30
0.0
 11
142.6691178591
 21
27.6376415278
 31
0.0
  0
LINE
  5
2E6
330
217
100
AcDbEntity
  8
0
  6
Continuous
 62
     7
100
AcDbLine
 10
120.9044761839
 20
119.2808105612
 30
0.0
 11
120.6044761839
 21
118.9808105612
 31
0.0
  0
LINE
  5
2E7
330
217
100
AcDbEntity
  8
0
  6
Continuous
 62
     7
100
AcDbLine
 10
123.9544761839
 20
122.0308105612
 30
0.0
 11
124.1544761839
 21
122.2308105612
 31
0.0
  0
LINE
  5
2E8
330
217
100
AcDbEntity
  8
0
  6
Continuous
 62
     7
100
AcDbLine
 10
81.7199357932
 20
182.9808105612
 30
0.0
 11
74.4044761839
 21
182.9808105612
 31
0.0
  0
LINE
  5
2E9
330
217
100
AcDbEntity
  8
0
  6
Continuous
 62
     7
100
AcDbLine
 10
129.3044761839
 20
182.9808105612
 30
0.0
 11
136.4044761839
 21
182.9808105612
 31
0.0
  0
LINE
  5
2EA
330
217
100
AcDbEntity
  8
0
  6
Continuous
 62
     7
100
AcDbLine
 10
136.9044761839
 20
161.6033114864
 30
0.0
 11
134.3020714481
 21
163.1058105612
 31
0.0
  0
LINE
  5
2EB
330
217
100
AcDbEntity
  8
0
  6
Continuous
 62
     3
100
AcDbLine
 10
190.6995950351
 20
42.9856036805
 30
0.0
 11
192.2198270351
 21
39.7997256805
 31
0.0
  0
LINE
  5
2EC
330
217
100
AcDbEntity
  8
0
  6
Continuous
 62
     3
100
AcDbLine
 10
190.8272602204
 20
43.0465226224
 30
0.0
 11
192.3474920350999
 21
39.8606446805
 31
0.0
  0
LINE
  5
2ED
330
217
100
AcDbEntity
  8
0
  6
Continuous
 62
     3
100
AcDbLine
 10
190.7929939803
 20
43.44679360839999
 30
0.0
 11
192.4751579803
 21
39.9215636084
 31
0.0
  0
LINE
  5
2EE
330
217
100
AcDbEntity
  8
0
  6
Continuous
 62
     3
100
AcDbLine
 10
190.8786990445
 20
43.59564663899999
 30
0.0
 11
192.6028230445
 21
39.98248263900001
 31
0.0
  0
LINE
  5
2EF
330
217
100
AcDbEntity
  8
0
  6
Continuous
 62
     3
100
AcDbLine
 10
190.9572200351
 20
43.6821846805
 30
0.0
 11
192.7004160351
 21
40.0290516805
 31
0.0
  0
LINE
  5
2F0
330
217
100
AcDbEntity
  8
0
  6
Continuous
 62
     3
100
AcDbLine
 10
191.035035012
 20
43.7685367827
 30
0.0
 11
192.758355012
 21
40.1570577827
 31
0.0
  0
LINE
  5
2F1
330
217
100
AcDbEntity
  8
0
  6
Continuous
 62
     3
100
AcDbLine
 10
191.1627001403
 20
43.82945584399999
 30
0.0
 11
192.9387971403
 21
40.10737484399999
 31
0.0
  0
LINE
  5
2F2
330
217
100
AcDbEntity
  8
0
  6
Continuous
 62
     3
100
AcDbLine
 10
191.29036488
 20
43.8903757198
 30
0.0
 11
192.8105945916
 21
40.704504994
 31
0.0
  0
LINE
  5
2F3
330
217
100
AcDbEntity
  8
0
  6
Continuous
 62
     3
100
AcDbLine
 10
191.4180301938
 20
43.9512943924
 30
0.0
 11
192.9382591938
 21
40.76542339239999
 31
0.0
  0
LINE
  5
2F4
330
217
100
AcDbEntity
  8
0
  6
Continuous
 62
     3
100
AcDbLine
 10
187.0591870351
 20
41.6002646805
 30
0.0
 11
186.3444180351
 21
43.1643466805
 31
0.0
  0
LINE
  5
2F5
330
217
100
AcDbEntity
  8
0
  6
Continuous
 62
     3
100
AcDbLine
 10
187.9875520350999
 20
39.5687826805
 30
0.0
 11
187.5203960351
 21
40.5910306805
 31
0.0
  0
LINE
  5
2F6
330
217
100
AcDbEntity
  8
0
  6
Continuous
 62
     3
100
AcDbLine
 10
188.1305050351
 20
39.6341106805
 30
0.0
 11
187.663348313
 21
40.6563581925
 31
0.0
  0
LINE
  5
2F7
330
217
100
AcDbEntity
  8
0
  6
Continuous
 62
     3
100
AcDbLine
 10
187.2021390805
 20
41.6655927013
 30
0.0
 11
186.4873710805
 21
43.2296747013
 31
0.0
  0
LINE
  5
2F8
330
217
100
AcDbEntity
  8
0
  6
Continuous
 62
     3
100
AcDbLine
 10
187.6016890351
 20
41.1694246805
 30
0.0
 11
186.6303230351
 21
43.2950026805
 31
0.0
  0
LINE
  5
2F9
330
217
100
AcDbEntity
  8
0
  6
Continuous
 62
     3
100
AcDbLine
 10
188.2734570351
 20
39.6994386805
 30
0.0
 11
187.8063015004
 21
40.7216861201
 31
0.0
  0
LINE
  5
2FA
330
217
100
AcDbEntity
  8
0
  6
Continuous
 62
     3
100
AcDbLine
 10
188.4341061217
 20
39.7676104903
 30
0.0
 11
186.6916971216999
 21
43.58041049029999
 31
0.0
  0
LINE
  5
2FB
330
217
100
AcDbEntity
  8
0
  6
Continuous
 62
     3
100
AcDbLine
 10
188.5770587268
 20
39.8329387669
 30
0.0
 11
186.8346507268
 21
43.64573876689999
 31
0.0
  0
LINE
  5
2FC
330
217
100
AcDbEntity
  8
0
  6
Continuous
 62
     3
100
AcDbLine
 10
188.7200117594
 20
39.8982667818
 30
0.0
 11
186.9776027594
 21
43.7110657818
 31
0.0
  0
LINE
  5
2FD
330
217
100
AcDbEntity
  8
0
  6
Continuous
 62
     3
100
AcDbLine
 10
188.8629639834
 20
39.9635948841
 30
0.0
 11
187.1205559834
 21
43.77639388409999
 31
0.0
  0
LINE
  5
2FE
330
217
100
AcDbEntity
  8
0
  6
Continuous
 62
     2
100
AcDbLine
 10
148.4971028591
 20
30.1455805278
 30
0.0
 11
148.4971028591
 21
26.8923485278
 31
0.0
  0
LINE
  5
2FF
330
217
100
AcDbEntity
  8
0
  6
Continuous
 62
     2
100
AcDbLine
 10
148.6837698591
 20
29.95891352780001
 30
0.0
 11
148.6837698591
 21
27.0790145278
 31
0.0
  0
LINE
  5
300
330
217
100
AcDbEntity
  8
0
  6
Continuous
 62
     2
100
AcDbLine
 10
149.1504358591
 20
29.49224752780001
 30
0.0
 11
149.1504358591
 21
27.54568152780001
 31
0.0
  0
LINE
  5
301
330
217
100
AcDbEntity
  8
0
  6
Continuous
 62
     2
100
AcDbLine
 10
150.2314208591
 20
29.2322875278
 30
0.0
 11
150.2314208591
 21
27.8056415278
 31
0.0
  0
LINE
  5
302
330
217
100
AcDbEntity
  8
0
  6
Continuous
 62
     2
100
AcDbLine
 10
150.6980878591
 20
29.4255875278
 30
0.0
 11
150.6980878591
 21
27.6123415278
 31
0.0
  0
LINE
  5
303
330
217
100
AcDbEntity
  8
0
  6
Continuous
 62
     2
100
AcDbLine
 10
150.8847548591
 20
29.5029075278
 30
0.0
 11
150.8847548591
 21
27.5350215278
 31
0.0
  0
LINE
  5
304
330
217
100
AcDbEntity
  8
0
  6
Continuous
 62
     7
100
AcDbLine
 10
155.0157443667
 20
25.7339269434
 30
0.0
 11
155.0157443667
 21
31.2339269434
 31
0.0
  0
LINE
  5
305
330
217
100
AcDbEntity
  8
0
  6
Continuous
 62
     7
100
AcDbLine
 10
136.4044761839
 20
182.9808105612
 30
0.0
 11
136.9044761839
 21
182.4808105612
 31
0.0
  0
LINE
  5
306
330
217
100
AcDbEntity
  8
0
  6
Continuous
 62
     7
100
AcDbLine
 10
97.8527984273
 20
214.8808105612
 30
0.0
 11
98.85267505979999
 21
213.8808105612
 31
0.0
  0
LINE
  5
307
330
217
100
AcDbEntity
  8
0
  6
Continuous
 62
     2
100
AcDbLine
 10
157.8730108591
 20
27.3187255278
 30
0.0
 11
157.8730108591
 21
29.7752685278
 31
0.0
  0
LINE
  5
308
330
217
100
AcDbEntity
  8
0
  6
Continuous
 62
     3
100
AcDbLine
 10
162.4124460351
 20
39.8386942274
 30
0.0
 11
162.4124460351
 21
43.91233022739999
 31
0.0
  0
LINE
  5
309
330
217
100
AcDbEntity
  8
0
  6
Continuous
 62
     3
100
AcDbLine
 10
162.5696180351
 20
39.8386926805
 30
0.0
 11
162.5696180351
 21
43.9123286805
 31
0.0
  0
LINE
  5
30A
330
217
100
AcDbEntity
  8
0
  6
Continuous
 62
     3
100
AcDbLine
 10
162.7267905351
 20
39.8386926805
 30
0.0
 11
162.7267905351
 21
43.9123286805
 31
0.0
  0
LINE
  5
30B
330
217
100
AcDbEntity
  8
0
  6
Continuous
 62
     2
100
AcDbLine
 10
162.7426938591
 20
26.6531915278
 30
0.0
 11
162.7426938591
 21
30.44080252780001
 31
0.0
  0
LINE
  5
30C
330
217
100
AcDbEntity
  8
0
  6
Continuous
 62
     3
100
AcDbLine
 10
162.8839630351
 20
39.8386926805
 30
0.0
 11
162.8839630351
 21
43.9123286805
 31
0.0
  0
LINE
  5
30D
330
217
100
AcDbEntity
  8
0
  6
Continuous
 62
     3
100
AcDbLine
 10
163.0419110351
 20
39.91766668050001
 30
0.0
 11
163.0419110351
 21
43.8333546805
 31
0.0
  0
LINE
  5
30E
330
217
100
AcDbEntity
  8
0
  6
Continuous
 62
     3
100
AcDbLine
 10
163.1990825351
 20
40.3891843882
 30
0.0
 11
163.1990835351
 21
41.3984176805
 31
0.0
  0
LINE
  5
30F
330
217
100
AcDbEntity
  8
0
  6
Continuous
 62
     3
100
AcDbLine
 10
163.1990825351
 20
42.3526043883
 30
0.0
 11
163.1990835351
 21
43.3618376805
 31
0.0
  0
LINE
  5
310
330
217
100
AcDbEntity
  8
0
  6
Continuous
 62
     3
100
AcDbLine
 10
163.3562560351
 20
40.3891840344
 30
0.0
 11
163.3562560351
 21
41.3984176805
 31
0.0
  0
LINE
  5
311
330
217
100
AcDbEntity
  8
0
  6
Continuous
 62
     3
100
AcDbLine
 10
163.3562550351
 20
42.3526040344
 30
0.0
 11
163.3562550351
 21
43.3618376805
 31
0.0
  0
LINE
  5
312
330
217
100
AcDbEntity
  8
0
  6
Continuous
 62
     3
100
AcDbLine
 10
163.5134280351
 20
40.3891836805
 30
0.0
 11
163.5134280351
 21
41.3984176805
 31
0.0
  0
LINE
  5
313
330
217
100
AcDbEntity
  8
0
  6
Continuous
 62
     3
100
AcDbLine
 10
163.5134280351
 20
42.3526036805
 30
0.0
 11
163.5134280351
 21
43.3618376805
 31
0.0
  0
LINE
  5
314
330
217
100
AcDbEntity
  8
DEFAULT_1
  6
CENTER
 62
     3
100
AcDbLine
 10
166.7636768591
 20
26.27141952780001
 30
0.0
 11
166.7636768591
 21
30.9532395278
 31
0.0
  0
LINE
  5
315
330
217
100
AcDbEntity
  8
0
  6
Continuous
 62
     3
100
AcDbLine
 10
167.3437135351
 20
39.8386926805
 30
0.0
 11
167.3437145351
 21
43.91233022739999
 31
0.0
  0
LINE
  5
316
330
217
100
AcDbEntity
  8
0
  6
Continuous
 62
     3
100
AcDbLine
 10
167.5008860351
 20
39.8386926805
 30
0.0
 11
167.5008860351
 21
43.91232978569999
 31
0.0
  0
LINE
  5
317
330
217
100
AcDbEntity
  8
0
  6
Continuous
 62
     3
100
AcDbLine
 10
167.6580580351
 20
39.8386926805
 30
0.0
 11
167.6580580351
 21
43.9123293441
 31
0.0
  0
LINE
  5
318
330
217
100
AcDbEntity
  8
0
  6
Continuous
 62
     3
100
AcDbLine
 10
167.8152305351
 20
39.8386926805
 30
0.0
 11
167.8152315351
 21
43.9123289024
 31
0.0
  0
LINE
  5
319
330
217
100
AcDbEntity
  8
0
  6
Continuous
 62
     3
100
AcDbLine
 10
167.9731795351
 20
39.8386924655
 30
0.0
 11
167.9731795351
 21
43.83335568049999
 31
0.0
  0
LINE
  5
31A
330
217
100
AcDbEntity
  8
0
  6
Continuous
 62
     7
100
AcDbLine
 10
110.1907727326
 20
208.8808105612
 30
0.0
 11
99.4178243366
 21
208.8808105612
 31
0.0
  0
LINE
  5
31B
330
217
100
AcDbEntity
  8
0
  6
Continuous
 62
     3
100
AcDbLine
 10
168.1303520351
 20
39.8386920375
 30
0.0
 11
168.1303510351
 21
43.3618366805
 31
0.0
  0
LINE
  5
31C
330
217
100
AcDbEntity
  8
0
  6
Continuous
 62
     3
100
AcDbLine
 10
168.2875240351
 20
39.8386916096
 30
0.0
 11
168.2875230351
 21
43.3618366805
 31
0.0
  0
LINE
  5
31D
330
217
100
AcDbEntity
  8
0
  6
Continuous
 62
     3
100
AcDbLine
 10
168.4446965351
 20
39.8386926805
 30
0.0
 11
168.4446965351
 21
43.3618366805
 31
0.0
  0
LINE
  5
31E
330
217
100
AcDbEntity
  8
0
  6
Continuous
 62
     7
100
AcDbLine
 10
172.0157443666999
 20
25.7339269434
 30
0.0
 11
172.0157443666999
 21
36.7339269434
 31
0.0
  0
LINE
  5
31F
330
217
100
AcDbEntity
  8
0
  6
Continuous
 62
     3
100
AcDbLine
 10
178.2156360351
 20
39.7836450467
 30
0.0
 11
178.2156360351
 21
43.5643666805
 31
0.0
  0
LINE
  5
320
330
217
100
AcDbEntity
  8
0
  6
Continuous
 62
     3
100
AcDbLine
 10
178.3570910351
 20
39.7836436805
 30
0.0
 11
178.3570910351
 21
43.564368768
 31
0.0
  0
LINE
  5
321
330
217
100
AcDbEntity
  8
0
  6
Continuous
 62
     3
100
AcDbLine
 10
178.4985460351
 20
39.7836436805
 30
0.0
 11
178.4985460351
 21
43.5643683779
 31
0.0
  0
LINE
  5
322
330
217
100
AcDbEntity
  8
0
  6
Continuous
 62
     3
100
AcDbLine
 10
178.6400010351
 20
39.7836436805
 30
0.0
 11
178.6400010351
 21
43.56436798789999
 31
0.0
  0
LINE
  5
323
330
217
100
AcDbEntity
  8
0
  6
Continuous
 62
     3
100
AcDbLine
 10
178.7821550350999
 20
39.7836434709
 30
0.0
 11
178.7821550350999
 21
43.5278066805
 31
0.0
  0
LINE
  5
324
330
217
100
AcDbEntity
  8
0
  6
Continuous
 62
     3
100
AcDbLine
 10
178.9236100351
 20
39.7836430536
 30
0.0
 11
178.9236100351
 21
43.49106268049999
 31
0.0
  0
LINE
  5
325
330
217
100
AcDbEntity
  8
0
  6
Continuous
 62
     3
100
AcDbLine
 10
179.0650650351
 20
39.78364263639999
 30
0.0
 11
179.0650650351
 21
42.9856036805
 31
0.0
  0
LINE
  5
326
330
217
100
AcDbEntity
  8
0
  6
Continuous
 62
     3
100
AcDbLine
 10
179.2065200350999
 20
39.7836422191
 30
0.0
 11
179.2065200350999
 21
42.9856036805
 31
0.0
  0
LINE
  5
327
330
217
100
AcDbEntity
  8
0
  6
Continuous
 62
     2
100
AcDbLine
 10
144.9442258591
 20
26.9856815278
 30
0.0
 11
145.9050998591
 21
30.1455805278
 31
0.0
  0
LINE
  5
328
330
217
100
AcDbEntity
  8
0
  6
Continuous
 62
     2
100
AcDbLine
 10
145.1393318591
 20
26.9856815278
 30
0.0
 11
146.0434438591
 21
29.95891352780001
 31
0.0
  0
LINE
  5
329
330
217
100
AcDbEntity
  8
0
  6
Continuous
 62
     7
100
AcDbLine
 10
97.8527984273
 20
214.8808105612
 30
0.0
 11
83.82619448859999
 21
214.8808105612
 31
0.0
  0
LINE
  5
32A
330
217
100
AcDbEntity
  8
0
  6
Continuous
 62
     7
100
AcDbLine
 10
112.3910046636
 20
214.8808105612
 30
0.0
 11
126.9854812032
 21
214.8808105612
 31
0.0
  0
LINE
  5
32B
330
217
100
AcDbEntity
  8
0
  6
Continuous
 62
     3
100
AcDbLine
 10
181.4451841938
 20
40.76542339239999
 30
0.0
 11
181.4451841938
 21
43.9673787586
 31
0.0
  0
LINE
  5
32C
330
217
100
AcDbEntity
  8
0
  6
Continuous
 62
     3
100
AcDbLine
 10
181.5866391938
 20
40.76542339239999
 30
0.0
 11
181.5866391938
 21
43.96737836849999
 31
0.0
  0
LINE
  5
32D
330
217
100
AcDbEntity
  8
0
  6
Continuous
 62
     3
100
AcDbLine
 10
181.7280949957
 20
40.26182185449999
 30
0.0
 11
181.7280949957
 21
43.9673784405
 31
0.0
  0
LINE
  5
32E
330
217
100
AcDbEntity
  8
0
  6
Continuous
 62
     3
100
AcDbLine
 10
181.8695499957
 20
40.2239408545
 30
0.0
 11
181.8695499957
 21
43.9673780505
 31
0.0
  0
LINE
  5
32F
330
217
100
AcDbEntity
  8
0
  6
Continuous
 62
     3
100
AcDbLine
 10
182.0117039957
 20
40.16125485449999
 30
0.0
 11
182.0117039957
 21
43.9673778545
 31
0.0
  0
LINE
  5
330
330
217
100
AcDbEntity
  8
0
  6
Continuous
 62
     3
100
AcDbLine
 10
182.1531589957
 20
40.16125485449999
 30
0.0
 11
182.1531589957
 21
43.9673778545
 31
0.0
  0
LINE
  5
331
330
217
100
AcDbEntity
  8
0
  6
Continuous
 62
     3
100
AcDbLine
 10
182.2946147976
 20
40.16125485449999
 30
0.0
 11
182.2946147976
 21
43.9673778545
 31
0.0
  0
LINE
  5
332
330
217
100
AcDbEntity
  8
0
  6
Continuous
 62
     3
100
AcDbLine
 10
182.4360697975999
 20
40.16125485439999
 30
0.0
 11
182.4360697975999
 21
43.9673763931
 31
0.0
  0
LINE
  5
333
330
217
100
AcDbEntity
  8
0
  6
Continuous
 62
     3
100
AcDbLine
 10
189.7087110351
 20
39.7836450467
 30
0.0
 11
189.7087110351
 21
43.5643666805
 31
0.0
  0
LINE
  5
334
330
217
100
AcDbEntity
  8
0
  6
Continuous
 62
     3
100
AcDbLine
 10
189.8501660351
 20
39.7836436805
 30
0.0
 11
189.8501660351
 21
43.564368768
 31
0.0
  0
LINE
  5
335
330
217
100
AcDbEntity
  8
0
  6
Continuous
 62
     3
100
AcDbLine
 10
189.9916210351
 20
39.7836436805
 30
0.0
 11
189.9916210351
 21
43.5643683779
 31
0.0
  0
LINE
  5
336
330
217
100
AcDbEntity
  8
0
  6
Continuous
 62
     3
100
AcDbLine
 10
190.1330760350999
 20
39.7836436805
 30
0.0
 11
190.1330760350999
 21
43.56436798789999
 31
0.0
  0
LINE
  5
337
330
217
100
AcDbEntity
  8
0
  6
Continuous
 62
     3
100
AcDbLine
 10
190.2752300351
 20
39.7836434709
 30
0.0
 11
190.2752290351
 21
43.5278066805
 31
0.0
  0
LINE
  5
338
330
217
100
AcDbEntity
  8
0
  6
Continuous
 62
     3
100
AcDbLine
 10
190.4166850351
 20
39.7836430536
 30
0.0
 11
190.4166850351
 21
43.49106268049999
 31
0.0
  0
LINE
  5
339
330
217
100
AcDbEntity
  8
0
  6
Continuous
 62
     3
100
AcDbLine
 10
190.5581400351
 20
39.78364263639999
 30
0.0
 11
190.5581400351
 21
42.9856036805
 31
0.0
  0
LINE
  5
33A
330
217
100
AcDbEntity
  8
0
  6
Continuous
 62
     3
100
AcDbLine
 10
190.6995950351
 20
39.7836436805
 30
0.0
 11
190.6995950351
 21
42.9856036805
 31
0.0
  0
LINE
  5
33B
330
217
100
AcDbEntity
  8
0
  6
Continuous
 62
     2
100
AcDbLine
 10
146.0386318591
 20
28.1397025278
 30
0.0
 11
146.3569378591
 21
29.1150545278
 31
0.0
  0
LINE
  5
33C
330
217
100
AcDbEntity
  8
0
  6
Continuous
 62
     2
100
AcDbLine
 10
145.6270978591
 20
26.9856815278
 30
0.0
 11
145.8786828591
 21
27.6730355278
 31
0.0
  0
LINE
  5
33D
330
217
100
AcDbEntity
  8
0
  6
Continuous
 62
     2
100
AcDbLine
 10
145.7264858591
 20
26.9856815278
 30
0.0
 11
145.9439098591
 21
27.5797025278
 31
0.0
  0
LINE
  5
33E
330
217
100
AcDbEntity
  8
0
  6
Continuous
 62
     3
100
AcDbLine
 10
150.5257074076
 20
41.50507619889999
 30
0.0
 11
151.9055294076
 21
44.5565511989
 31
0.0
  0
LINE
  5
33F
330
217
100
AcDbEntity
  8
0
  6
Continuous
 62
     3
100
AcDbLine
 10
150.668912377
 20
41.4403209259
 30
0.0
 11
152.0487351859
 21
44.49179625560001
 31
0.0
  0
LINE
  5
340
330
217
100
AcDbEntity
  8
0
  6
Continuous
 62
     3
100
AcDbLine
 10
150.7517241706
 20
41.43176278659999
 30
0.0
 11
152.1207010895
 21
44.45925475270001
 31
0.0
  0
LINE
  5
341
330
217
100
AcDbEntity
  8
0
  6
Continuous
 62
     3
100
AcDbLine
 10
150.8121246553
 20
41.3755630789
 30
0.0
 11
152.1919466919
 21
44.42703853770001
 31
0.0
  0
LINE
  5
342
330
217
100
AcDbEntity
  8
0
  6
Continuous
 62
     3
100
AcDbLine
 10
150.8949348729
 20
41.3670051284
 30
0.0
 11
152.2639125734
 21
44.394496986
 31
0.0
  0
LINE
  5
343
330
217
100
AcDbEntity
  8
0
  6
Continuous
 62
     3
100
AcDbLine
 10
151.0381468401
 20
41.3022478654
 30
0.0
 11
152.4071186225
 21
44.3297426415
 31
0.0
  0
LINE
  5
344
330
217
100
AcDbEntity
  8
0
  6
Continuous
 62
     3
100
AcDbLine
 10
192.9382591938
 20
40.76542339239999
 30
0.0
 11
192.9382591938
 21
43.96737739239999
 31
0.0
  0
LINE
  5
345
330
217
100
AcDbEntity
  8
0
  6
Continuous
 62
     3
100
AcDbLine
 10
193.0797134336
 20
40.76542339239999
 30
0.0
 11
193.0797134336
 21
43.96737836849999
 31
0.0
  0
LINE
  5
346
330
217
100
AcDbEntity
  8
0
  6
Continuous
 62
     3
100
AcDbLine
 10
193.2211699957
 20
40.26182185449999
 30
0.0
 11
193.2211699957
 21
43.9673784405
 31
0.0
  0
LINE
  5
347
330
217
100
AcDbEntity
  8
0
  6
Continuous
 62
     3
100
AcDbLine
 10
193.3626249957
 20
40.2239408545
 30
0.0
 11
193.3626249957
 21
43.9673780505
 31
0.0
  0
LINE
  5
348
330
217
100
AcDbEntity
  8
0
  6
Continuous
 62
     3
100
AcDbLine
 10
193.5047779957
 20
40.16125485449999
 30
0.0
 11
193.5047789957
 21
43.9673778545
 31
0.0
  0
LINE
  5
349
330
217
100
AcDbEntity
  8
0
  6
Continuous
 62
     3
100
AcDbLine
 10
193.6462339957
 20
40.16125485449999
 30
0.0
 11
193.6462339957
 21
43.9673778545
 31
0.0
  0
LINE
  5
34A
330
217
100
AcDbEntity
  8
0
  6
Continuous
 62
     3
100
AcDbLine
 10
193.7876905579
 20
40.16125485449999
 30
0.0
 11
193.7876905579
 21
43.9673778545
 31
0.0
  0
LINE
  5
34B
330
217
100
AcDbEntity
  8
0
  6
Continuous
 62
     3
100
AcDbLine
 10
193.9291447975999
 20
40.16125485439999
 30
0.0
 11
193.9291447975999
 21
43.9673763931
 31
0.0
  0
LINE
  5
34C
330
217
100
AcDbEntity
  8
0
  6
Continuous
 62
     3
100
AcDbLine
 10
160.5628130351
 20
44.1388430555
 30
0.0
 11
159.0015900351
 21
40.6807350555
 31
0.0
  0
LINE
  5
34D
330
217
100
AcDbEntity
  8
0
  6
Continuous
 62
     3
100
AcDbLine
 10
160.7060638782
 20
44.0741712479
 30
0.0
 11
159.1448404424
 21
40.61606187169999
 31
0.0
  0
LINE
  5
34E
330
217
100
AcDbEntity
  8
0
  6
Continuous
 62
     3
100
AcDbLine
 10
160.849315101
 20
44.00949779939999
 30
0.0
 11
159.1198310564
 21
40.1786883476
 31
0.0
  0
LINE
  5
34F
330
217
100
AcDbEntity
  8
0
  6
Continuous
 62
     3
100
AcDbLine
 10
160.9925642771
 20
43.9448250703
 30
0.0
 11
159.2951297123
 21
40.1850069544
 31
0.0
  0
LINE
  5
350
330
217
100
AcDbEntity
  8
0
  6
Continuous
 62
     3
100
AcDbLine
 10
161.1365204678
 20
43.8798326964
 30
0.0
 11
159.4583659828
 21
40.162720921
 31
0.0
  0
LINE
  5
351
330
217
100
AcDbEntity
  8
0
  6
Continuous
 62
     3
100
AcDbLine
 10
161.2797696818
 20
43.81516005119999
 30
0.0
 11
159.6016157047
 21
40.09804791239999
 31
0.0
  0
LINE
  5
352
330
217
100
AcDbEntity
  8
0
  6
Continuous
 62
     3
100
AcDbLine
 10
161.4230210351
 20
43.75048689169999
 30
0.0
 11
159.7448656544
 21
40.03337480099999
 31
0.0
  0
LINE
  5
353
330
217
100
AcDbEntity
  8
0
  6
Continuous
 62
     3
100
AcDbLine
 10
161.5662714264
 20
43.6858140835
 30
0.0
 11
159.8881175029
 21
39.9687046805
 31
0.0
  0
LINE
  5
354
330
217
100
AcDbEntity
  8
0
  6
Continuous
 62
     7
100
AcDbLine
 10
206.0
 20
8.0
 30
0.0
 11
206.0
 21
294.0
 31
0.0
  0
LINE
  5
355
330
217
100
AcDbEntity
  8
0
  6
Continuous
 62
     2
100
AcDbLine
 10
142.0157848591
 20
29.6709075278
 30
0.0
 11
142.4904578591
 21
30.1455805278
 31
0.0
  0
LINE
  5
356
330
217
100
AcDbEntity
  8
0
  6
Continuous
 62
     2
100
AcDbLine
 10
142.2024508591
 20
29.5935875278
 30
0.0
 11
142.5677778591
 21
29.95891352780001
 31
0.0
  0
LINE
  5
357
330
217
100
AcDbEntity
  8
0
  6
Continuous
 62
     2
100
AcDbLine
 10
142.6691178591
 20
29.4002875278
 30
0.0
 11
142.7610778591
 21
29.49224752780001
 31
0.0
  0
LINE
  5
358
330
217
100
AcDbEntity
  8
0
  6
Continuous
 62
     2
100
AcDbLine
 10
144.3760988591
 20
29.6142435278
 30
0.0
 11
143.9141228591
 21
29.15226752780001
 31
0.0
  0
LINE
  5
359
330
217
100
AcDbEntity
  8
0
  6
Continuous
 62
     3
100
AcDbLine
 10
183.2413565896
 20
39.9635948841
 30
0.0
 11
184.9837645896
 21
43.77639388409999
 31
0.0
  0
LINE
  5
35A
330
217
100
AcDbEntity
  8
0
  6
Continuous
 62
     3
100
AcDbLine
 10
183.3843090351
 20
39.8982666805
 30
0.0
 11
185.1267188481
 21
43.7110680456
 31
0.0
  0
LINE
  5
35B
330
217
100
AcDbEntity
  8
0
  6
Continuous
 62
     3
100
AcDbLine
 10
183.5272616442
 20
39.8329388591
 30
0.0
 11
185.2696705242
 21
43.64574025069999
 31
0.0
  0
LINE
  5
35C
330
217
100
AcDbEntity
  8
0
  6
Continuous
 62
     3
100
AcDbLine
 10
183.6702141217
 20
39.7676106409
 30
0.0
 11
185.4126239781
 21
43.58041164329999
 31
0.0
  0
LINE
  5
35D
330
217
100
AcDbEntity
  8
0
  6
Continuous
 62
     3
100
AcDbLine
 10
183.6803557304
 20
39.7629764115
 30
0.0
 11
185.3277961216999
 21
43.3679626409
 31
0.0
  0
LINE
  5
35E
330
217
100
AcDbEntity
  8
0
  6
Continuous
 62
     3
100
AcDbLine
 10
183.823308218
 20
39.6976482155
 30
0.0
 11
185.4707486441999
 21
43.30263485909999
 31
0.0
  0
LINE
  5
35F
330
217
100
AcDbEntity
  8
0
  6
Continuous
 62
     3
100
AcDbLine
 10
183.9662606645
 20
39.6323200383
 30
0.0
 11
185.6137010351
 21
43.2373066805
 31
0.0
  0
LINE
  5
360
330
217
100
AcDbEntity
  8
0
  6
Continuous
 62
     3
100
AcDbLine
 10
184.1092135896
 20
39.5669928841
 30
0.0
 11
185.7566535896
 21
43.1719798841
 31
0.0
  0
LINE
  5
361
330
217
100
AcDbEntity
  8
0
  6
Continuous
 62
     2
100
AcDbLine
 10
143.9141228591
 20
27.8856615278
 30
0.0
 11
143.5741428591
 21
27.54568152780001
 31
0.0
  0
LINE
  5
362
330
217
100
AcDbEntity
  8
0
  6
Continuous
 62
     2
100
AcDbLine
 10
144.2441058591
 20
27.5556785278
 30
0.0
 11
143.7674428591
 21
27.0790145278
 31
0.0
  0
LINE
  5
363
330
217
100
AcDbEntity
  8
0
  6
Continuous
 62
     2
100
AcDbLine
 10
144.3760988591
 20
27.4236845278
 30
0.0
 11
143.8447628591
 21
26.8923485278
 31
0.0
  0
LINE
  5
364
330
217
100
AcDbEntity
  8
0
  6
Continuous
 62
     2
100
AcDbLine
 10
150.2314208591
 20
27.8056415278
 30
0.0
 11
149.9714618591
 21
27.54568152780001
 31
0.0
  0
LINE
  5
365
330
217
100
AcDbEntity
  8
0
  6
Continuous
 62
     2
100
AcDbLine
 10
150.6980878591
 20
27.6123415278
 30
0.0
 11
150.1647608591
 21
27.0790145278
 31
0.0
  0
LINE
  5
366
330
217
100
AcDbEntity
  8
0
  6
Continuous
 62
     2
100
AcDbLine
 10
150.8847548591
 20
27.5350215278
 30
0.0
 11
150.2420808591
 21
26.8923485278
 31
0.0
  0
LINE
  5
367
330
217
100
AcDbEntity
  8
0
  6
Continuous
 62
     7
100
AcDbLine
 10
6.0
 20
294.0
 30
0.0
 11
206.0
 21
294.0
 31
0.0
  0
LINE
  5
368
330
217
100
AcDbEntity
  8
0
  6
Continuous
 62
     7
100
AcDbLine
 10
89.90447618389998
 20
119.2808105612
 30
0.0
 11
120.9044761839
 21
119.2808105612
 31
0.0
  0
LINE
  5
369
330
217
100
AcDbEntity
  8
0
  6
Continuous
 62
     7
100
AcDbLine
 10
120.9043102403
 20
120.8808105612
 30
0.0
 11
89.90464212739999
 21
120.8808105612
 31
0.0
  0
LINE
  5
36A
330
217
100
AcDbEntity
  8
0
  6
Continuous
 62
     7
100
AcDbLine
 10
123.9543178676
 20
122.0308105612
 30
0.0
 11
123.9521877164
 21
122.0308105612
 31
0.0
  0
LINE
  5
36B
330
217
100
AcDbEntity
  8
0
  6
Continuous
 62
     7
100
AcDbLine
 10
86.65447618389999
 20
122.2308105612
 30
0.0
 11
124.1544761839
 21
122.2308105612
 31
0.0
  0
LINE
  5
36C
330
217
100
AcDbEntity
  8
0
  6
Continuous
 62
     7
100
AcDbLine
 10
85.3317103208
 20
124.0308105612
 30
0.0
 11
125.477242047
 21
124.0308105612
 31
0.0
  0
LINE
  5
36D
330
217
100
AcDbEntity
  8
0
  6
Continuous
 62
     7
100
AcDbLine
 10
84.83841332739999
 20
124.4536221289
 30
0.0
 11
125.9705390403
 21
124.4536221289
 31
0.0
  0
LINE
  5
36E
330
217
100
AcDbEntity
  8
0
  6
Continuous
 62
     7
100
AcDbLine
 10
86.85447618389998
 20
122.0308105612
 30
0.0
 11
86.65447618389999
 21
122.2308105612
 31
0.0
  0
LINE
  5
36F
330
217
100
AcDbEntity
  8
0
  6
Continuous
 62
     7
100
AcDbLine
 10
89.90447618389998
 20
119.2808105612
 30
0.0
 11
90.20447618389999
 21
118.9808105612
 31
0.0
  0
LINE
  5
370
330
217
100
AcDbEntity
  8
DEFAULT_2
  6
HIDDEN
 62
     8
100
AcDbLine
 10
85.70447610530001
 20
200.4179901928
 30
0.0
 11
88.20447616959999
 21
201.8613659028
 31
0.0
  0
LINE
  5
371
330
217
100
AcDbEntity
  8
0
  6
Continuous
 62
     7
100
AcDbLine
 10
83.6544761839
 20
132.0308105612
 30
0.0
 11
127.1544761839
 21
132.0308105612
 31
0.0
  0
LINE
  5
372
330
217
100
AcDbEntity
  8
0
  6
Continuous
 62
     7
100
AcDbLine
 10
73.9044761839
 20
182.4808105612
 30
0.0
 11
73.9044761839
 21
168.3583096359
 31
0.0
  0
LINE
  5
373
330
217
100
AcDbEntity
  8
0
  6
Continuous
 62
     7
100
AcDbLine
 10
73.9044761839
 20
161.6033114864
 30
0.0
 11
73.9044761839
 21
157.5308105612
 31
0.0
  0
LINE
  5
374
330
217
100
AcDbEntity
  8
0
  6
Continuous
 62
     7
100
AcDbLine
 10
74.4044761839
 20
182.9808105612
 30
0.0
 11
73.9044761839
 21
182.4808105612
 31
0.0
  0
LINE
  5
375
330
217
100
AcDbEntity
  8
0
  6
Continuous
 62
     7
100
AcDbLine
 10
83.6544761839
 20
135.1308105612
 30
0.0
 11
127.1544761839
 21
135.1308105612
 31
0.0
  0
LINE
  5
376
330
217
100
AcDbEntity
  8
0
  6
Continuous
 62
     7
100
AcDbLine
 10
77.9044761839
 20
163.1058105612
 30
0.0
 11
77.9044761839
 21
166.8558105612
 31
0.0
  0
LINE
  5
377
330
217
100
AcDbEntity
  8
0
  6
Continuous
 62
     7
100
AcDbLine
 10
94.9791311793
 20
214.6338735219
 30
0.0
 11
94.87450221160001
 21
214.4099682895
 31
0.0
  0
LINE
  5
378
330
217
100
AcDbEntity
  8
0
  6
Continuous
 62
     7
100
AcDbLine
 10
111.3907727326
 20
213.8808105612
 30
0.0
 11
112.3907727326
 21
214.8808105612
 31
0.0
  0
LINE
  5
379
330
217
100
AcDbEntity
  8
0
  6
Continuous
 62
     7
100
AcDbLine
 10
83.6544761839
 20
140.1308105612
 30
0.0
 11
127.1544761839
 21
140.1308105612
 31
0.0
  0
LINE
  5
37A
330
217
100
AcDbEntity
  8
0
  6
Continuous
 62
     7
100
AcDbLine
 10
73.9044761839
 20
157.5308105612
 30
0.0
 11
74.4044761839
 21
157.0308105612
 31
0.0
  0
LINE
  5
37B
330
217
100
AcDbEntity
  8
0
  6
Continuous
 62
     7
100
AcDbLine
 10
83.6544761839
 20
132.0308105612
 30
0.0
 11
84.83841187720001
 21
124.4536221242
 31
0.0
  0
LINE
  5
37C
330
217
100
AcDbEntity
  8
0
  6
Continuous
 62
     7
100
AcDbLine
 10
80.7571450854
 20
161.6033114864
 30
0.0
 11
80.7571450854
 21
157.5308105612
 31
0.0
  0
LINE
  5
37D
330
217
100
AcDbEntity
  8
0
  6
Continuous
 62
     7
100
AcDbLine
 10
80.7571450854
 20
168.3583096359
 30
0.0
 11
80.7571450854
 21
177.5728020866
 31
0.0
  0
LINE
  5
37E
330
217
100
AcDbEntity
  8
0
  6
Continuous
 62
     7
100
AcDbLine
 10
81.50447618390002
 20
183.7849167702
 30
0.0
 11
81.50447618390002
 21
183.3808105612
 31
0.0
  0
LINE
  5
37F
330
217
100
AcDbEntity
  8
0
  6
Continuous
 62
     7
100
AcDbLine
 10
82.62497446359999
 20
213.7408576918
 30
0.0
 11
81.18403740839999
 21
184.9808105612
 31
0.0
  0
LINE
  5
380
330
217
100
AcDbEntity
  8
0
  6
Continuous
 62
     7
100
AcDbLine
 10
83.6544761839
 20
141.3308105612
 30
0.0
 11
127.1544761839
 21
141.3308105612
 31
0.0
  0
LINE
  5
381
330
217
100
AcDbEntity
  8
0
  6
Continuous
 62
     7
100
AcDbLine
 10
83.40447618389999
 20
154.0308105612
 30
0.0
 11
83.40447618389999
 21
147.3308105612
 31
0.0
  0
LINE
  5
382
330
217
100
AcDbEntity
  8
0
  6
Continuous
 62
     7
100
AcDbLine
 10
83.6544761839
 20
147.3308105612
 30
0.0
 11
83.6544761839
 21
146.3308105612
 31
0.0
  0
LINE
  5
383
330
217
100
AcDbEntity
  8
0
  6
Continuous
 62
     7
100
AcDbLine
 10
83.6544761839
 20
141.3308105612
 30
0.0
 11
83.6544761839
 21
140.1308105612
 31
0.0
  0
LINE
  5
384
330
217
100
AcDbEntity
  8
0
  6
Continuous
 62
     7
100
AcDbLine
 10
83.6544761839
 20
135.1308105612
 30
0.0
 11
83.6544761839
 21
132.0308105612
 31
0.0
  0
LINE
  5
385
330
217
100
AcDbEntity
  8
0
  6
Continuous
 62
     7
100
AcDbLine
 10
84.5928588718
 20
171.0286081219
 30
0.0
 11
84.5928588718
 21
166.8558105612
 31
0.0
  0
LINE
  5
386
330
217
100
AcDbEntity
  8
0
  6
Continuous
 62
     7
100
AcDbLine
 10
84.5928588718
 20
163.1058105612
 30
0.0
 11
84.5928588718
 21
157.0308105612
 31
0.0
  0
LINE
  5
387
330
217
100
AcDbEntity
  8
0
  6
Continuous
 62
     7
100
AcDbLine
 10
85.02468732210001
 20
171.0286081219
 30
0.0
 11
85.02468732210001
 21
168.3583096359
 31
0.0
  0
LINE
  5
388
330
217
100
AcDbEntity
  8
0
  6
Continuous
 62
     7
100
AcDbLine
 10
85.02468732210001
 20
161.6033114864
 30
0.0
 11
85.02468732210001
 21
157.5308105612
 31
0.0
  0
LINE
  5
389
330
217
100
AcDbEntity
  8
DEFAULT_2
  6
HIDDEN
 62
     8
100
AcDbLine
 10
85.4044761839
 20
189.2258085595999
 30
0.0
 11
85.4044761839
 21
199.8983749947
 31
0.0
  0
LINE
  5
38A
330
217
100
AcDbEntity
  8
0
  6
Continuous
 62
     7
100
AcDbLine
 10
86.65447618389999
 20
122.2308105612
 30
0.0
 11
86.65447618389999
 21
124.0308105612
 31
0.0
  0
LINE
  5
38B
330
217
100
AcDbEntity
  8
0
  6
Continuous
 62
     7
100
AcDbLine
 10
83.6544761839
 20
146.3308105612
 30
0.0
 11
127.1544761839
 21
146.3308105612
 31
0.0
  0
LINE
  5
38C
330
217
100
AcDbEntity
  8
0
  6
Continuous
 62
     7
100
AcDbLine
 10
127.4044761839
 20
147.3308105612
 30
0.0
 11
83.40447618389999
 21
147.3308105612
 31
0.0
  0
LINE
  5
38D
330
217
100
AcDbEntity
  8
0
  6
Continuous
 62
     7
100
AcDbLine
 10
127.1544761839
 20
147.3665969988
 30
0.0
 11
83.6544761839
 21
147.3665969988
 31
0.0
  0
LINE
  5
38E
330
217
100
AcDbEntity
  8
0
  6
Continuous
 62
     7
100
AcDbLine
 10
81.18403740839999
 20
184.9808105612
 30
0.0
 11
81.50447618390002
 21
183.7849167702
 31
0.0
  0
LINE
  5
38F
330
217
100
AcDbEntity
  8
0
  6
Continuous
 62
     7
100
AcDbLine
 10
87.40447618389998
 20
154.2808105612
 30
0.0
 11
87.40447618389998
 21
156.2308105612
 31
0.0
  0
LINE
  5
390
330
217
100
AcDbEntity
  8
DEFAULT_2
  6
HIDDEN
 62
     8
100
AcDbLine
 10
88.40447618389999
 20
175.3599667587
 30
0.0
 11
88.40447618389999
 21
182.9808105612
 31
0.0
  0
LINE
  5
391
330
217
100
AcDbEntity
  8
DEFAULT_2
  6
HIDDEN
 62
     8
100
AcDbLine
 10
88.40447618389999
 20
202.2077760726
 30
0.0
 11
88.40447618389999
 21
214.0808105612
 31
0.0
  0
LINE
  5
392
330
217
100
AcDbEntity
  8
0
  6
Continuous
 62
     7
100
AcDbLine
 10
89.90447618389998
 20
120.8808105612
 30
0.0
 11
89.90447618389998
 21
119.2808105612
 31
0.0
  0
LINE
  5
393
330
217
100
AcDbEntity
  8
0
  6
Continuous
 62
     7
100
AcDbLine
 10
90.40447618389999
 20
120.8808105612
 30
0.0
 11
90.40447618389999
 21
122.0308105612
 31
0.0
  0
LINE
  5
394
330
217
100
AcDbEntity
  8
DEFAULT_2
  6
HIDDEN
 62
     8
100
AcDbLine
 10
100.0891644594
 20
196.7861019927
 30
0.0
 11
99.50669870709999
 21
194.6123102114
 31
0.0
  0
LINE
  5
395
330
217
100
AcDbEntity
  8
0
  6
Continuous
 62
     7
100
AcDbLine
 10
73.9044761839
 20
161.6033114864
 30
0.0
 11
76.50688091970001
 21
163.1058105612
 31
0.0
  0
LINE
  5
396
330
217
100
AcDbEntity
  8
0
  6
Continuous
 62
     7
100
AcDbLine
 10
127.4017620985
 20
154.0308105612
 30
0.0
 11
127.4044374216
 21
154.0308105612
 31
0.0
  0
LINE
  5
397
330
217
100
AcDbEntity
  8
0
  6
Continuous
 62
     7
100
AcDbLine
 10
87.40447618389998
 20
154.2808105612
 30
0.0
 11
123.4044761839
 21
154.2808105612
 31
0.0
  0
LINE
  5
398
330
217
100
AcDbEntity
  8
0
  6
Continuous
 62
     7
100
AcDbLine
 10
76.50688091970001
 20
166.8558105612
 30
0.0
 11
73.9044761839
 21
168.3583096359
 31
0.0
  0
LINE
  5
399
330
217
100
AcDbEntity
  8
DEFAULT_2
  6
HIDDEN
 62
     8
100
AcDbLine
 10
95.37947618389999
 20
126.9808105612
 30
0.0
 11
95.37947618389999
 21
119.4808105612
 31
0.0
  0
LINE
  5
39A
330
217
100
AcDbEntity
  8
0
  6
Continuous
 62
     7
100
AcDbLine
 10
96.44748036950002
 20
157.5308105612
 30
0.0
 11
96.44748036950002
 21
161.6033114864
 31
0.0
  0
LINE
  5
39B
330
217
100
AcDbEntity
  8
0
  6
Continuous
 62
     7
100
AcDbLine
 10
96.44748036950002
 20
168.3583096359
 30
0.0
 11
96.44748036950002
 21
170.0308105612
 31
0.0
  0
LINE
  5
39C
330
217
100
AcDbEntity
  8
0
  6
Continuous
 62
     7
100
AcDbLine
 10
96.93469443659999
 20
157.5308105612
 30
0.0
 11
96.93469443659999
 21
161.8800850809
 31
0.0
  0
LINE
  5
39D
330
217
100
AcDbEntity
  8
0
  6
Continuous
 62
     7
100
AcDbLine
 10
96.93469443659999
 20
168.0815360414
 30
0.0
 11
96.93469443659999
 21
170.0308105612
 31
0.0
  0
LINE
  5
39E
330
217
100
AcDbEntity
  8
0
  6
Continuous
 62
     7
100
AcDbLine
 10
96.98136555659999
 20
157.5308105612
 30
0.0
 11
96.98136555659999
 21
163.1058105612
 31
0.0
  0
LINE
  5
39F
330
217
100
AcDbEntity
  8
0
  6
Continuous
 62
     7
100
AcDbLine
 10
96.98136555659999
 20
166.8558105612
 30
0.0
 11
96.98136555659999
 21
170.0308105612
 31
0.0
  0
LINE
  5
3A0
330
217
100
AcDbEntity
  8
0
  6
Continuous
 62
     7
100
AcDbLine
 10
97.48915753150001
 20
158.0308105612
 30
0.0
 11
97.48915753150001
 21
163.1058105612
 31
0.0
  0
LINE
  5
3A1
330
217
100
AcDbEntity
  8
0
  6
Continuous
 62
     7
100
AcDbLine
 10
97.48915753150001
 20
166.8558105612
 30
0.0
 11
97.48915753150001
 21
170.0308105612
 31
0.0
  0
LINE
  5
3A2
330
217
100
AcDbEntity
  8
0
  6
Continuous
 62
     7
100
AcDbLine
 10
97.64066960920001
 20
166.8558105612
 30
0.0
 11
97.64066960920001
 21
163.1058105612
 31
0.0
  0
LINE
  5
3A3
330
217
100
AcDbEntity
  8
0
  6
Continuous
 62
     7
100
AcDbLine
 10
87.4044761883
 20
156.2308105612
 30
0.0
 11
123.4044761795
 21
156.2308105612
 31
0.0
  0
LINE
  5
3A4
330
217
100
AcDbEntity
  8
0
  6
Continuous
 62
     7
100
AcDbLine
 10
113.4351624241
 20
157.0308105612
 30
0.0
 11
96.4372596719
 21
157.0308105612
 31
0.0
  0
LINE
  5
3A5
330
217
100
AcDbEntity
  8
0
  6
Continuous
 62
     7
100
AcDbLine
 10
74.40451593129999
 20
157.0308105612
 30
0.0
 11
85.03490883499999
 21
157.0308105612
 31
0.0
  0
LINE
  5
3A6
330
217
100
AcDbEntity
  8
0
  6
Continuous
 62
     7
100
AcDbLine
 10
136.9044761839
 20
157.5308105612
 30
0.0
 11
113.4084565807
 21
157.5308105612
 31
0.0
  0
LINE
  5
3A7
330
217
100
AcDbEntity
  8
0
  6
Continuous
 62
     7
100
AcDbLine
 10
96.98136555659999
 20
157.5308105612
 30
0.0
 11
96.93469443659999
 21
157.5308105612
 31
0.0
  0
LINE
  5
3A8
330
217
100
AcDbEntity
  8
0
  6
Continuous
 62
     7
100
AcDbLine
 10
96.44748036950002
 20
157.5308105612
 30
0.0
 11
85.02468732210001
 21
157.5308105612
 31
0.0
  0
LINE
  5
3A9
330
217
100
AcDbEntity
  8
0
  6
Continuous
 62
     7
100
AcDbLine
 10
80.7571450854
 20
157.5308105612
 30
0.0
 11
73.9044761839
 21
157.5308105612
 31
0.0
  0
LINE
  5
3AA
330
217
100
AcDbEntity
  8
0
  6
Continuous
 62
     7
100
AcDbLine
 10
98.88705067389999
 20
210.0808105612
 30
0.0
 11
98.88705067389999
 21
213.8808105612
 31
0.0
  0
LINE
  5
3AB
330
217
100
AcDbEntity
  8
0
  6
Continuous
 62
     7
100
AcDbLine
 10
99.3834487225
 20
209.1098960012
 30
0.0
 11
99.3834487225
 21
213.8808105612
 31
0.0
  0
LINE
  5
3AC
330
217
100
AcDbEntity
  8
3_ALL_AXES
  6
HIDDEN
 62
     8
100
AcDbLine
 10
99.40447618389999
 20
193.8358530684
 30
0.0
 11
99.40447618389999
 21
173.0308105612
 31
0.0
  0
LINE
  5
3AD
330
217
100
AcDbEntity
  8
0
  6
Continuous
 62
     7
100
AcDbLine
 10
99.41817963510001
 20
213.8808105612
 30
0.0
 11
99.41817963510001
 21
209.0916744562
 31
0.0
  0
LINE
  5
3AE
330
217
100
AcDbEntity
  8
3_ALL_AXES
  6
HIDDEN
 62
     8
100
AcDbLine
 10
101.4044761839
 20
161.3308105612
 30
0.0
 11
101.4044761839
 21
196.9308105612
 31
0.0
  0
LINE
  5
3AF
330
217
100
AcDbEntity
  8
0
  6
Continuous
 62
     7
100
AcDbLine
 10
87.15447618389999
 20
154.0308105612
 30
0.0
 11
87.40447618389998
 21
154.2808105612
 31
0.0
  0
LINE
  5
3B0
330
217
100
AcDbEntity
  8
DEFAULT_2
  6
HIDDEN
 62
     8
100
AcDbLine
 10
96.15450398780001
 20
161.0308105612
 30
0.0
 11
114.65444838
 21
161.0308105612
 31
0.0
  0
LINE
  5
3B1
330
217
100
AcDbEntity
  8
0
  6
Continuous
 62
     7
100
AcDbLine
 10
136.9044761839
 20
161.6033114864
 30
0.0
 11
113.4084565807
 21
161.6033114864
 31
0.0
  0
LINE
  5
3B2
330
217
100
AcDbEntity
  8
0
  6
Continuous
 62
     7
100
AcDbLine
 10
96.44748036950002
 20
161.6033114864
 30
0.0
 11
85.02468732210001
 21
161.6033114864
 31
0.0
  0
LINE
  5
3B3
330
217
100
AcDbEntity
  8
0
  6
Continuous
 62
     7
100
AcDbLine
 10
80.7571450854
 20
161.6033114864
 30
0.0
 11
73.9044761839
 21
161.6033114864
 31
0.0
  0
LINE
  5
3B4
330
217
100
AcDbEntity
  8
0
  6
Continuous
 62
     7
100
AcDbLine
 10
76.5070951447
 20
163.1058105612
 30
0.0
 11
96.9692997383
 21
163.1058105612
 31
0.0
  0
LINE
  5
3B5
330
217
100
AcDbEntity
  8
0
  6
Continuous
 62
     7
100
AcDbLine
 10
96.98136555659999
 20
163.1058105612
 30
0.0
 11
97.64066960920001
 21
163.1058105612
 31
0.0
  0
LINE
  5
3B6
330
217
100
AcDbEntity
  8
0
  6
Continuous
 62
     7
100
AcDbLine
 10
112.3357949411
 20
163.1058105612
 30
0.0
 11
134.3019291741
 21
163.1058105612
 31
0.0
  0
LINE
  5
3B7
330
217
100
AcDbEntity
  8
3_ALL_AXES
  6
CENTER
 62
     2
100
AcDbLine
 10
105.4044761839
 20
220.8808105612
 30
0.0
 11
105.4044761839
 21
112.9808105612
 31
0.0
  0
LINE
  5
3B8
330
217
100
AcDbEntity
  8
0
  6
Continuous
 62
     7
100
AcDbLine
 10
134.3019291741
 20
166.8558105612
 30
0.0
 11
112.3357949411
 21
166.8558105612
 31
0.0
  0
LINE
  5
3B9
330
217
100
AcDbEntity
  8
0
  6
Continuous
 62
     7
100
AcDbLine
 10
97.64066960920001
 20
166.8558105612
 30
0.0
 11
96.98136555659999
 21
166.8558105612
 31
0.0
  0
LINE
  5
3BA
330
217
100
AcDbEntity
  8
0
  6
Continuous
 62
     7
100
AcDbLine
 10
76.5070951447
 20
166.8558105612
 30
0.0
 11
96.9692997383
 21
166.8558105612
 31
0.0
  0
LINE
  5
3BB
330
217
100
AcDbEntity
  8
0
  6
Continuous
 62
     7
100
AcDbLine
 10
113.170324281
 20
157.2903108441
 30
0.0
 11
112.9327205563
 21
157.5308105612
 31
0.0
  0
LINE
  5
3BC
330
217
100
AcDbEntity
  8
3_ALL_AXES
  6
HIDDEN
 62
     8
100
AcDbLine
 10
109.4044761839
 20
161.3308105612
 30
0.0
 11
109.4044761839
 21
196.9308105612
 31
0.0
  0
LINE
  5
3BD
330
217
100
AcDbEntity
  8
0
  6
Continuous
 62
     7
100
AcDbLine
 10
97.48915753150001
 20
158.0308105612
 30
0.0
 11
96.489280899
 21
157.0308105612
 31
0.0
  0
LINE
  5
3BE
330
217
100
AcDbEntity
  8
0
  6
Continuous
 62
     7
100
AcDbLine
 10
96.6913580669
 20
157.2903108441
 30
0.0
 11
96.93469443659999
 21
157.5308105612
 31
0.0
  0
LINE
  5
3BF
330
217
100
AcDbEntity
  8
0
  6
Continuous
 62
     7
100
AcDbLine
 10
136.9005905241
 20
170.4807857881
 30
0.0
 11
136.8991407817
 21
170.480647736
 31
0.0
  0
LINE
  5
3C0
330
217
100
AcDbEntity
  8
0
  6
Continuous
 62
     7
100
AcDbLine
 10
73.9044761839
 20
168.3583096359
 30
0.0
 11
80.7571450854
 21
168.3583096359
 31
0.0
  0
LINE
  5
3C1
330
217
100
AcDbEntity
  8
0
  6
Continuous
 62
     7
100
AcDbLine
 10
85.02468732210001
 20
168.3583096359
 30
0.0
 11
96.44748036950002
 21
168.3583096359
 31
0.0
  0
LINE
  5
3C2
330
217
100
AcDbEntity
  8
0
  6
Continuous
 62
     7
100
AcDbLine
 10
113.4084565807
 20
168.3583096359
 30
0.0
 11
136.9044761839
 21
168.3583096359
 31
0.0
  0
LINE
  5
3C3
330
217
100
AcDbEntity
  8
0
  6
Continuous
 62
     7
100
AcDbLine
 10
96.44748036950002
 20
170.0308105612
 30
0.0
 11
97.48915753150001
 21
170.0308105612
 31
0.0
  0
LINE
  5
3C4
330
217
100
AcDbEntity
  8
0
  6
Continuous
 62
     7
100
AcDbLine
 10
112.4873070187
 20
170.0308105612
 30
0.0
 11
113.4084565807
 21
170.0308105612
 31
0.0
  0
LINE
  5
3C5
330
217
100
AcDbEntity
  8
DEFAULT_2
  6
HIDDEN
 62
     8
100
AcDbLine
 10
131.9012069445999
 20
170.9808105612
 30
0.0
 11
136.4006517908
 21
170.9808105612
 31
0.0
  0
LINE
  5
3C6
330
217
100
AcDbEntity
  8
0
  6
Continuous
 62
     7
100
AcDbLine
 10
84.5928588718
 20
171.0286081219
 30
0.0
 11
85.02468732210001
 21
171.0286081219
 31
0.0
  0
LINE
  5
3C7
330
217
100
AcDbEntity
  8
0
  6
Continuous
 62
     7
100
AcDbLine
 10
123.6544761839
 20
154.0308105612
 30
0.0
 11
123.4044761839
 21
154.2808105612
 31
0.0
  0
LINE
  5
3C8
330
217
100
AcDbEntity
  8
0
  6
Continuous
 62
     7
100
AcDbLine
 10
111.3907727326
 20
210.0808105612
 30
0.0
 11
111.3907727326
 21
213.8808105612
 31
0.0
  0
LINE
  5
3C9
330
217
100
AcDbEntity
  8
3_ALL_AXES
  6
HIDDEN
 62
     8
100
AcDbLine
 10
111.4044761839
 20
193.8358530684
 30
0.0
 11
111.4044761839
 21
173.0308105612
 31
0.0
  0
LINE
  5
3CA
330
217
100
AcDbEntity
  8
0
  6
Continuous
 62
     7
100
AcDbLine
 10
112.3357949411
 20
166.8558105612
 30
0.0
 11
112.3357949411
 21
163.1058105612
 31
0.0
  0
LINE
  5
3CB
330
217
100
AcDbEntity
  8
0
  6
Continuous
 62
     7
100
AcDbLine
 10
112.4873070187
 20
170.0308105612
 30
0.0
 11
112.4873070187
 21
166.8558105612
 31
0.0
  0
LINE
  5
3CC
330
217
100
AcDbEntity
  8
0
  6
Continuous
 62
     7
100
AcDbLine
 10
112.4873070187
 20
163.1058105612
 30
0.0
 11
112.4873070187
 21
158.0308105612
 31
0.0
  0
LINE
  5
3CD
330
217
100
AcDbEntity
  8
0
  6
Continuous
 62
     7
100
AcDbLine
 10
112.9327205563
 20
157.5308105612
 30
0.0
 11
112.9327205563
 21
161.8800851277
 31
0.0
  0
LINE
  5
3CE
330
217
100
AcDbEntity
  8
0
  6
Continuous
 62
     7
100
AcDbLine
 10
112.9327205563
 20
168.0815359946
 30
0.0
 11
112.9327205563
 21
170.0308105612
 31
0.0
  0
LINE
  5
3CF
330
217
100
AcDbEntity
  8
0
  6
Continuous
 62
     7
100
AcDbLine
 10
113.4084565807
 20
157.5308105612
 30
0.0
 11
113.4084565807
 21
161.6033114864
 31
0.0
  0
LINE
  5
3D0
330
217
100
AcDbEntity
  8
0
  6
Continuous
 62
     7
100
AcDbLine
 10
113.4084565807
 20
168.3583096359
 30
0.0
 11
113.4084565807
 21
170.0308105612
 31
0.0
  0
LINE
  5
3D1
330
217
100
AcDbEntity
  8
DEFAULT_2
  6
HIDDEN
 62
     8
100
AcDbLine
 10
89.6547350684
 20
173.0308105612
 30
0.0
 11
121.1542172993
 21
173.0308105612
 31
0.0
  0
LINE
  5
3D2
330
217
100
AcDbEntity
  8
DEFAULT_2
  6
HIDDEN
 62
     8
100
AcDbLine
 10
115.4294761839
 20
126.9808105612
 30
0.0
 11
115.4294761839
 21
119.4808105612
 31
0.0
  0
LINE
  5
3D3
330
217
100
AcDbEntity
  8
DEFAULT_2
  6
HIDDEN
 62
     8
100
AcDbLine
 10
122.4044761839
 20
175.3599667587
 30
0.0
 11
88.40447618389999
 21
175.3599667587
 31
0.0
  0
LINE
  5
3D4
330
217
100
AcDbEntity
  8
0
  6
Continuous
 62
     7
100
AcDbLine
 10
136.9044761839
 20
161.6033114864
 30
0.0
 11
134.3020714481
 21
163.1058105612
 31
0.0
  0
LINE
  5
3D5
330
217
100
AcDbEntity
  8
0
  6
Continuous
 62
     7
100
AcDbLine
 10
120.4044761839
 20
120.8808105612
 30
0.0
 11
120.4044761839
 21
122.0308105612
 31
0.0
  0
LINE
  5
3D6
330
217
100
AcDbEntity
  8
0
  6
Continuous
 62
     7
100
AcDbLine
 10
120.9044761839
 20
120.8808105612
 30
0.0
 11
120.9044761839
 21
119.2808105612
 31
0.0
  0
LINE
  5
3D7
330
217
100
AcDbEntity
  8
0
  6
Continuous
 62
     7
100
AcDbLine
 10
134.3020714481
 20
166.8558105612
 30
0.0
 11
136.9044761839
 21
168.3583096359
 31
0.0
  0
LINE
  5
3D8
330
217
100
AcDbEntity
  8
DEFAULT_2
  6
HIDDEN
 62
     8
100
AcDbLine
 10
131.9012069445999
 20
180.9808105612
 30
0.0
 11
136.4006517908
 21
180.9808105612
 31
0.0
  0
LINE
  5
3D9
330
217
100
AcDbEntity
  8
0
  6
Continuous
 62
     7
100
AcDbLine
 10
136.9044761839
 20
182.4808105612
 30
0.0
 11
73.9044761839
 21
182.4808105612
 31
0.0
  0
LINE
  5
3DA
330
217
100
AcDbEntity
  8
DEFAULT_2
  6
HIDDEN
 62
     8
100
AcDbLine
 10
110.7197879084
 20
196.7861019927
 30
0.0
 11
111.3022536607
 21
194.6123102114
 31
0.0
  0
LINE
  5
3DB
330
217
100
AcDbEntity
  8
DEFAULT_2
  6
HIDDEN
 62
     8
100
AcDbLine
 10
122.4044761839
 20
175.3599667587
 30
0.0
 11
122.4044761839
 21
182.9808105612
 31
0.0
  0
LINE
  5
3DC
330
217
100
AcDbEntity
  8
DEFAULT_2
  6
HIDDEN
 62
     8
100
AcDbLine
 10
122.4044761839
 20
202.2077760726
 30
0.0
 11
122.4044761839
 21
214.0808105612
 31
0.0
  0
LINE
  5
3DD
330
217
100
AcDbEntity
  8
0
  6
Continuous
 62
     7
100
AcDbLine
 10
123.4044761839
 20
154.2808105612
 30
0.0
 11
123.4044761839
 21
156.2308105612
 31
0.0
  0
LINE
  5
3DE
330
217
100
AcDbEntity
  8
0
  6
Continuous
 62
     7
100
AcDbLine
 10
124.1544761839
 20
122.2308105612
 30
0.0
 11
124.1544761839
 21
124.0308105612
 31
0.0
  0
LINE
  5
3DF
330
217
100
AcDbEntity
  8
0
  6
Continuous
 62
     7
100
AcDbLine
 10
129.6249149594
 20
184.9808105612
 30
0.0
 11
129.3044761839
 21
183.7849167702
 31
0.0
  0
LINE
  5
3E0
330
217
100
AcDbEntity
  8
DEFAULT_2
  6
HIDDEN
 62
     8
100
AcDbLine
 10
131.9007648472
 20
176.980182614
 30
0.0
 11
131.9012069445999
 21
176.9808105612
 31
0.0
  0
LINE
  5
3E1
330
217
100
AcDbEntity
  8
0
  6
Continuous
 62
     7
100
AcDbLine
 10
136.4041442968
 20
182.9808105612
 30
0.0
 11
74.40480807100001
 21
182.9808105612
 31
0.0
  0
LINE
  5
3E2
330
217
100
AcDbEntity
  8
0
  6
Continuous
 62
     7
100
AcDbLine
 10
81.50447618390002
 20
183.3808105612
 30
0.0
 11
129.3044761839
 21
183.3808105612
 31
0.0
  0
LINE
  5
3E3
330
217
100
AcDbEntity
  8
0
  6
Continuous
 62
     7
100
AcDbLine
 10
81.50447618390002
 20
183.7849167702
 30
0.0
 11
129.3044761839
 21
183.7849167702
 31
0.0
  0
LINE
  5
3E4
330
217
100
AcDbEntity
  8
0
  6
Continuous
 62
     7
100
AcDbLine
 10
129.6249149594
 20
184.9808105612
 30
0.0
 11
81.18403740839999
 21
184.9808105612
 31
0.0
  0
LINE
  5
3E5
330
217
100
AcDbEntity
  8
0
  6
Continuous
 62
     7
100
AcDbLine
 10
136.8991420318
 20
181.481022604
 30
0.0
 11
136.9005896901
 21
181.4808353329
 31
0.0
  0
LINE
  5
3E6
330
217
100
AcDbEntity
  8
DEFAULT_2
  6
HIDDEN
 62
     8
100
AcDbLine
 10
125.4044761839
 20
189.2258085595999
 30
0.0
 11
125.4044761839
 21
199.8983749947
 31
0.0
  0
LINE
  5
3E7
330
217
100
AcDbEntity
  8
0
  6
Continuous
 62
     7
100
AcDbLine
 10
127.1544761839
 20
147.3308105612
 30
0.0
 11
127.1544761839
 21
146.3308105612
 31
0.0
  0
LINE
  5
3E8
330
217
100
AcDbEntity
  8
0
  6
Continuous
 62
     7
100
AcDbLine
 10
127.1544761839
 20
141.3308105612
 30
0.0
 11
127.1544761839
 21
140.1308105612
 31
0.0
  0
LINE
  5
3E9
330
217
100
AcDbEntity
  8
0
  6
Continuous
 62
     7
100
AcDbLine
 10
127.1544761839
 20
135.1308105612
 30
0.0
 11
127.1544761839
 21
132.0308105612
 31
0.0
  0
LINE
  5
3EA
330
217
100
AcDbEntity
  8
0
  6
Continuous
 62
     7
100
AcDbLine
 10
127.4044761839
 20
154.0308105612
 30
0.0
 11
127.4044761839
 21
147.3308105612
 31
0.0
  0
LINE
  5
3EB
330
217
100
AcDbEntity
  8
0
  6
Continuous
 62
     7
100
AcDbLine
 10
128.1839779042
 20
213.7408576918
 30
0.0
 11
129.6249149594
 21
184.9808105612
 31
0.0
  0
LINE
  5
3EC
330
217
100
AcDbEntity
  8
0
  6
Continuous
 62
     7
100
AcDbLine
 10
129.3044761839
 20
183.7849167702
 30
0.0
 11
129.3044761839
 21
183.3808105612
 31
0.0
  0
LINE
  5
3ED
330
217
100
AcDbEntity
  8
0
  6
Continuous
 62
     7
100
AcDbLine
 10
127.1544761839
 20
132.0308105612
 30
0.0
 11
125.9705404906
 21
124.4536221242
 31
0.0
  0
LINE
  5
3EE
330
217
100
AcDbEntity
  8
0
  6
Continuous
 62
     7
100
AcDbLine
 10
101.8512025414
 20
193.8358530684
 30
0.0
 11
108.2951497154
 21
193.8358530684
 31
0.0
  0
LINE
  5
3EF
330
217
100
AcDbEntity
  8
DEFAULT_2
  6
HIDDEN
 62
     8
100
AcDbLine
 10
131.9012069445999
 20
174.9808105612
 30
0.0
 11
131.9007648472
 21
174.9814385083
 31
0.0
  0
LINE
  5
3F0
330
217
100
AcDbEntity
  8
0
  6
Continuous
 62
     7
100
AcDbLine
 10
132.9044761839
 20
163.1058105612
 30
0.0
 11
132.9044761839
 21
166.8558105612
 31
0.0
  0
LINE
  5
3F1
330
217
100
AcDbEntity
  8
0
  6
Continuous
 62
     7
100
AcDbLine
 10
136.9044761839
 20
157.5308105612
 30
0.0
 11
136.4044761839
 21
157.0308105612
 31
0.0
  0
LINE
  5
3F2
330
217
100
AcDbEntity
  8
0
  6
Continuous
 62
     7
100
AcDbLine
 10
102.4490395225
 20
194.6123101937
 30
0.0
 11
107.6942685037
 21
194.6123101933
 31
0.0
  0
LINE
  5
3F3
330
217
100
AcDbEntity
  8
DEFAULT_2
  6
HIDDEN
 62
     8
100
AcDbLine
 10
110.1413834916
 20
197.2308105612
 30
0.0
 11
100.6675688761
 21
197.2308105612
 31
0.0
  0
LINE
  5
3F4
330
217
100
AcDbEntity
  8
0
  6
Continuous
 62
     7
100
AcDbLine
 10
98.41817963510001
 20
214.8808105612
 30
0.0
 11
99.41782433670001
 21
213.8808105612
 31
0.0
  0
LINE
  5
3F5
330
217
100
AcDbEntity
  8
0
  6
Continuous
 62
     7
100
AcDbLine
 10
115.2051156768
 20
214.6338735219
 30
0.0
 11
115.3034750876
 21
214.4099682895
 31
0.0
  0
LINE
  5
3F6
330
217
100
AcDbEntity
  8
0
  6
Continuous
 62
     7
100
AcDbLine
 10
136.9044761839
 20
182.4808105612
 30
0.0
 11
136.9044761839
 21
181.4237751061
 31
0.0
  0
LINE
  5
3F7
330
217
100
AcDbEntity
  8
0
  6
Continuous
 62
     7
100
AcDbLine
 10
136.9044761839
 20
170.480647736
 30
0.0
 11
136.9044761839
 21
168.3583096359
 31
0.0
  0
LINE
  5
3F8
330
217
100
AcDbEntity
  8
0
  6
Continuous
 62
     7
100
AcDbLine
 10
136.9044761839
 20
161.6033114864
 30
0.0
 11
136.9044761839
 21
157.5308105612
 31
0.0
  0
LINE
  5
3F9
330
217
100
AcDbEntity
  8
DEFAULT_2
  6
HIDDEN
 62
     8
100
AcDbLine
 10
85.40448342940001
 20
199.8983749891
 30
0.0
 11
125.4044689384
 21
199.8983749891
 31
0.0
  0
LINE
  5
3FA
330
217
100
AcDbEntity
  8
DEFAULT_2
  6
HIDDEN
 62
     8
100
AcDbLine
 10
88.20447909020002
 20
201.8613658721
 30
0.0
 11
122.6044732776
 21
201.8613658721
 31
0.0
  0
LINE
  5
3FB
330
217
100
AcDbEntity
  8
0
  6
Continuous
 62
     7
100
AcDbLine
 10
136.4044761839
 20
182.9808105612
 30
0.0
 11
136.9044761839
 21
182.4808105612
 31
0.0
  0
LINE
  5
3FC
330
217
100
AcDbEntity
  8
0
  6
Continuous
 62
     7
100
AcDbLine
 10
112.6205902575
 20
208.8808105612
 30
0.0
 11
97.50519266419999
 21
208.8808105612
 31
0.0
  0
LINE
  5
3FD
330
217
100
AcDbEntity
  8
DEFAULT_2
  6
HIDDEN
 62
     8
100
AcDbLine
 10
125.1044762625
 20
200.4179901928
 30
0.0
 11
122.6044761982
 21
201.8613659028
 31
0.0
  0
LINE
  5
3FE
330
217
100
AcDbEntity
  8
0
  6
Continuous
 62
     7
100
AcDbLine
 10
120.9044761839
 20
119.2808105612
 30
0.0
 11
120.6044761839
 21
118.9808105612
 31
0.0
  0
LINE
  5
3FF
330
217
100
AcDbEntity
  8
0
  6
Continuous
 62
     7
100
AcDbLine
 10
123.9544761839
 20
122.0308105612
 30
0.0
 11
124.1544761839
 21
122.2308105612
 31
0.0
  0
LINE
  5
400
330
217
100
AcDbEntity
  8
0
  6
Continuous
 62
     7
100
AcDbLine
 10
95.3912630543
 20
210.0808105612
 30
0.0
 11
98.88705067389999
 21
210.0808105612
 31
0.0
  0
LINE
  5
401
330
217
100
AcDbEntity
  8
0
  6
Continuous
 62
     7
100
AcDbLine
 10
111.390773157
 20
210.0808105612
 30
0.0
 11
114.7636548683
 21
210.0808105612
 31
0.0
  0
LINE
  5
402
330
217
100
AcDbEntity
  8
0
  6
Continuous
 62
     7
100
AcDbLine
 10
82.62498865839999
 20
213.7408576918
 30
0.0
 11
95.94807235040001
 21
213.7408576918
 31
0.0
  0
LINE
  5
403
330
217
100
AcDbEntity
  8
0
  6
Continuous
 62
     7
100
AcDbLine
 10
114.205258836
 20
213.7408576918
 30
0.0
 11
128.1839637094
 21
213.7408576918
 31
0.0
  0
LINE
  5
404
330
217
100
AcDbEntity
  8
0
  6
Continuous
 62
     7
100
AcDbLine
 10
95.98512368580001
 20
213.8808105612
 30
0.0
 11
98.88705067389999
 21
213.8808105612
 31
0.0
  0
LINE
  5
405
330
217
100
AcDbEntity
  8
0
  6
Continuous
 62
     7
100
AcDbLine
 10
99.3834487225
 20
213.8808105612
 30
0.0
 11
99.41782433670001
 21
213.8808105612
 31
0.0
  0
LINE
  5
406
330
217
100
AcDbEntity
  8
0
  6
Continuous
 62
     7
100
AcDbLine
 10
111.3907727326
 20
213.8808105612
 30
0.0
 11
114.1682231838
 21
213.8808105612
 31
0.0
  0
LINE
  5
407
330
217
100
AcDbEntity
  8
0
  6
Continuous
 62
     7
100
AcDbLine
 10
98.6883450022
 20
214.0808105612
 30
0.0
 11
99.18220374129999
 21
214.0808105612
 31
0.0
  0
LINE
  5
408
330
217
100
AcDbEntity
  8
0
  6
Continuous
 62
     7
100
AcDbLine
 10
83.8278553926
 20
214.8808105612
 30
0.0
 11
98.41794770420001
 21
214.8808105612
 31
0.0
  0
LINE
  5
409
330
217
100
AcDbEntity
  8
DEFAULT_2
  6
HIDDEN
 62
     8
100
AcDbLine
 10
112.4183718393
 20
214.8808105612
 30
0.0
 11
113.700256992
 21
214.8808105612
 31
0.0
  0
LINE
  5
40A
330
217
100
AcDbEntity
  8
0
  6
Continuous
 62
     7
100
AcDbLine
 10
113.700256992
 20
214.8808105612
 30
0.0
 11
126.9854473342
 21
214.8808105612
 31
0.0
  0
ARC
  5
40B
330
217
100
AcDbEntity
  8
0
  6
Continuous
 62
     7
100
AcDbCircle
 10
131.4846032028
 20
143.8308105612
 30
0.0
 40
5.0
100
AcDbArc
 50
150.0
 51
210.0
  0
ARC
  5
40C
330
217
100
AcDbEntity
  8
0
  6
Continuous
 62
     7
100
AcDbCircle
 10
131.4846032028
 20
137.6308105612
 30
0.0
 40
5.0
100
AcDbArc
 50
150.0
 51
210.0
  0
ARC
  5
40D
330
217
100
AcDbEntity
  8
0
  6
Continuous
 62
     7
100
AcDbCircle
 10
79.3243491649
 20
137.6308105612
 30
0.0
 40
5.0
100
AcDbArc
 50
330.0
 51
30.0
  0
ARC
  5
40E
330
217
100
AcDbEntity
  8
0
  6
Continuous
 62
     7
100
AcDbCircle
 10
79.3243491649
 20
143.8308105612
 30
0.0
 40
5.0
100
AcDbArc
 50
330.0
 51
30.0
  0
ARC
  5
40F
330
217
100
AcDbEntity
  8
0
  6
Continuous
 62
     7
100
AcDbCircle
 10
126.9854812032
 20
213.6808105612
 30
0.0
 40
1.199999999999999
100
AcDbArc
 50
2.8682371247
 51
90.0
  0
ARC
  5
410
330
217
100
AcDbEntity
  8
0
  6
Continuous
 62
     7
100
AcDbCircle
 10
83.82347116449999
 20
213.6808105612
 30
0.0
 40
1.199999999999999
100
AcDbArc
 50
90.0
 51
177.1317628753
  0
ARC
  5
411
330
217
100
AcDbEntity
  8
0
  6
Continuous
 62
     7
100
AcDbCircle
 10
110.1907727326
 20
210.0808105612
 30
0.0
 40
1.199999999999999
100
AcDbArc
 50
270.0
 51
360.0
  0
ARC
  5
412
330
217
100
AcDbEntity
  8
0
  6
Continuous
 62
     7
100
AcDbCircle
 10
100.0526203446
 20
210.0807430294
 30
0.0
 40
1.199942362099999
100
AcDbArc
 50
179.99677545
 51
269.9955437702
  0
ARC
  5
413
330
217
100
AcDbEntity
  8
0
  6
Continuous
 62
     7
100
AcDbCircle
 10
124.2044761839
 20
156.2308105612
 30
0.0
 40
0.8
100
AcDbArc
 50
90.0
 51
180.0
  0
ARC
  5
414
330
217
100
AcDbEntity
  8
0
  6
Continuous
 62
     7
100
AcDbCircle
 10
86.6044761839
 20
156.2308105612
 30
0.0
 40
0.8
100
AcDbArc
 50
0.0
 51
90.0
  0
ARC
  5
415
330
217
100
AcDbEntity
  8
0
  6
Continuous
 62
     7
100
AcDbCircle
 10
125.4765344732
 20
124.5308105612
 30
0.0
 40
0.5
100
AcDbArc
 50
269.9999257838
 51
351.1193423873
  0
ARC
  5
416
330
217
100
AcDbEntity
  8
0
  6
Continuous
 62
     7
100
AcDbCircle
 10
85.3324178945
 20
124.5308105612
 30
0.0
 40
0.5
100
AcDbArc
 50
188.8806576127
 51
270.0000742162
  0
ARC
  5
417
330
217
100
AcDbEntity
  8
0
  6
Continuous
 62
     2
100
AcDbCircle
 10
166.8116268591
 20
28.5469965278
 30
0.0
 40
1.893806
100
AcDbArc
 50
181.982398
 51
180.0
  0
ARC
  5
418
330
217
100
AcDbEntity
  8
0
  6
Continuous
 62
     2
100
AcDbCircle
 10
166.8116268591
 20
28.5469965278
 30
0.0
 40
1.228272
100
AcDbArc
 50
104.836193
 51
104.717592
  0
ARC
  5
419
330
217
100
AcDbEntity
  8
0
  6
Continuous
 62
     3
100
AcDbCircle
 10
150.5257077144
 20
43.2609138043
 30
0.0
 40
3.7158164999
100
AcDbArc
 50
158.8940679997
 51
128.8257642889
  0
ARC
  5
41A
330
217
100
AcDbEntity
  8
0
  6
Continuous
 62
     3
100
AcDbCircle
 10
150.5257077144
 20
43.2609138043
 30
0.0
 40
3.558644421799999
100
AcDbArc
 50
158.894184962
 51
128.825653
  0
ARC
  5
41B
330
217
100
AcDbEntity
  8
0
  6
Continuous
 62
     3
100
AcDbCircle
 10
150.5257077144
 20
43.2609138043
 30
0.0
 40
3.4062712825
100
AcDbArc
 50
158.894068
 51
127.862755
  0
ARC
  5
41C
330
217
100
AcDbEntity
  8
0
  6
Continuous
 62
     3
100
AcDbCircle
 10
150.5257077144
 20
43.2609138043
 30
0.0
 40
3.401472421799999
100
AcDbArc
 50
158.894068
 51
128.825653
  0
ARC
  5
41D
330
217
100
AcDbEntity
  8
0
  6
Continuous
 62
     3
100
AcDbCircle
 10
150.5257077144
 20
43.2609138043
 30
0.0
 40
3.249098578199999
100
AcDbArc
 50
158.8940679999
 51
127.862755
  0
ARC
  5
41E
330
217
100
AcDbEntity
  8
0
  6
Continuous
 62
     3
100
AcDbCircle
 10
150.5257077144
 20
43.2609138043
 30
0.0
 40
3.0919264999
100
AcDbArc
 50
158.8940680003
 51
127.862755
  0
ARC
  5
41F
330
217
100
AcDbEntity
  8
0
  6
Continuous
 62
     3
100
AcDbCircle
 10
158.834252269
 20
40.4444897861
 30
0.0
 40
1.1562886309
100
AcDbArc
 50
204.2975932083
 51
335.7024067917
  0
ARC
  5
420
330
217
100
AcDbEntity
  8
0
  6
Continuous
 62
     3
100
AcDbCircle
 10
158.834252269
 20
40.4444897861
 30
0.0
 40
0.9991157434000001
100
AcDbArc
 50
204.2976487429
 51
335.702233
  0
ARC
  5
421
330
217
100
AcDbEntity
  8
0
  6
Continuous
 62
     3
100
AcDbCircle
 10
158.834252269
 20
40.4444897861
 30
0.0
 40
0.8419433556999999
100
AcDbArc
 50
204.2976349862
 51
335.702233
  0
ARC
  5
422
330
217
100
AcDbEntity
  8
0
  6
Continuous
 62
     3
100
AcDbCircle
 10
158.834252269
 20
40.4444897861
 30
0.0
 40
0.6847712181000001
100
AcDbArc
 50
204.2976149146
 51
335.702233
  0
ARC
  5
423
330
217
100
AcDbEntity
  8
0
  6
Continuous
 62
     3
100
AcDbCircle
 10
150.5257074436
 20
41.5339640447
 30
0.0
 40
0.5623935658
100
AcDbArc
 50
204.3316132345
 51
335.6683447898
  0
ARC
  5
424
330
217
100
AcDbEntity
  8
0
  6
Continuous
 62
     3
100
AcDbCircle
 10
158.8342526747
 20
40.3930767638
 30
0.0
 40
0.5056685568
100
AcDbArc
 50
204.2975526703
 51
335.7024941683
  0
ARC
  5
425
330
217
100
AcDbEntity
  8
0
  6
Continuous
 62
     3
100
AcDbCircle
 10
158.8342524504
 20
40.756281868
 30
0.0
 40
0.497946
100
AcDbArc
 50
204.297445
 51
335.702233
  0
ARC
  5
426
330
217
100
AcDbEntity
  8
0
  6
Continuous
 62
     3
100
AcDbCircle
 10
150.5257074436
 20
41.5339640447
 30
0.0
 40
0.4052211425000001
100
AcDbArc
 50
204.3315936926
 51
335.668255
  0
ARC
  5
427
330
217
100
AcDbEntity
  8
0
  6
Continuous
 62
     3
100
AcDbCircle
 10
158.8342520351
 20
40.4892196805
 30
0.0
 40
0.388056
100
AcDbArc
 50
204.297475
 51
335.702257
  0
ARC
  5
428
330
217
100
AcDbEntity
  8
0
  6
Continuous
 62
     3
100
AcDbCircle
 10
158.8342524504
 20
40.756281868
 30
0.0
 40
0.3407734557
100
AcDbArc
 50
204.2974450002
 51
335.7024302432
  0
ARC
  5
429
330
217
100
AcDbEntity
  8
0
  6
Continuous
 62
     3
100
AcDbCircle
 10
150.5257074076
 20
41.50507619889999
 30
0.0
 40
0.3143381747
100
AcDbArc
 50
204.331477
 51
335.66830759
  0
ARC
  5
42A
330
217
100
AcDbEntity
  8
0
  6
Continuous
 62
     3
100
AcDbCircle
 10
158.8342536209
 20
40.30761527550001
 30
0.0
 40
0.3133314928
100
AcDbArc
 50
204.2972285876
 51
335.7027046182
  0
ARC
  5
42B
330
217
100
AcDbEntity
  8
0
  6
Continuous
 62
     3
100
AcDbCircle
 10
150.5257074436
 20
41.5339640447
 30
0.0
 40
0.2480497088
100
AcDbArc
 50
204.3316646843
 51
335.668255
  0
ARC
  5
42C
330
217
100
AcDbEntity
  8
0
  6
Continuous
 62
     3
100
AcDbCircle
 10
158.8342524504
 20
40.756281868
 30
0.0
 40
0.1836006212
100
AcDbArc
 50
204.2975674637
 51
335.7025609441
  0
ARC
  5
42D
330
217
100
AcDbEntity
  8
0
  6
Continuous
 62
     3
100
AcDbCircle
 10
150.5257074076
 20
41.50507619889999
 30
0.0
 40
0.1571652272
100
AcDbArc
 50
204.3314769709
 51
335.6681861848
  0
ARC
  5
42E
330
217
100
AcDbEntity
  8
0
  6
Continuous
 62
     3
100
AcDbCircle
 10
155.3116132226
 20
46.7748827652
 30
0.0
 40
0.5504914242
100
AcDbArc
 50
24.2976920616
 51
204.2975972
  0
ARC
  5
42F
330
217
100
AcDbEntity
  8
0
  6
Continuous
 62
     3
100
AcDbCircle
 10
148.4836705003
 20
45.79835707039999
 30
0.0
 40
0.4587419977
100
AcDbArc
 50
128.8256529996
 51
204.3316476528
  0
ARC
  5
430
330
217
100
AcDbEntity
  8
0
  6
Continuous
 62
     3
100
AcDbCircle
 10
155.3116132226
 20
46.7748827652
 30
0.0
 40
0.3933190365999999
100
AcDbArc
 50
24.2976799242
 51
204.2975471553
  0
ARC
  5
431
330
217
100
AcDbEntity
  8
0
  6
Continuous
 62
     3
100
AcDbCircle
 10
148.6279694072
 20
45.7019379332
 30
0.0
 40
0.3143447826
100
AcDbArc
 50
127.862755
 51
204.3319083504
  0
ARC
  5
432
330
217
100
AcDbEntity
  8
0
  6
Continuous
 62
     3
100
AcDbCircle
 10
147.3501780351
 20
44.4866186805
 30
0.0
 40
0.3119450001000001
100
AcDbArc
 50
338.8954022895
 51
158.8927337033
  0
ARC
  5
433
330
217
100
AcDbEntity
  8
0
  6
Continuous
 62
     3
100
AcDbCircle
 10
148.4836705003
 20
45.79835707039999
 30
0.0
 40
0.3015699196999999
100
AcDbArc
 50
128.8242817445
 51
204.331441
  0
ARC
  5
434
330
217
100
AcDbEntity
  8
0
  6
Continuous
 62
     3
100
AcDbCircle
 10
152.1563238797
 20
44.4431466208
 30
0.0
 40
0.2752425577
100
AcDbArc
 50
335.6685420202
 51
155.6684052315
  0
ARC
  5
435
330
217
100
AcDbEntity
  8
0
  6
Continuous
 62
     3
100
AcDbCircle
 10
155.3116132226
 20
46.7748827652
 30
0.0
 40
0.236146649
100
AcDbArc
 50
24.2976516301
 51
204.297430494
  0
ARC
  5
436
330
217
100
AcDbEntity
  8
0
  6
Continuous
 62
     3
100
AcDbCircle
 10
148.6279694072
 20
45.7019379332
 30
0.0
 40
0.1571720783
100
AcDbArc
 50
127.862755
 51
204.3321530553
  0
ARC
  5
437
330
217
100
AcDbEntity
  8
0
  6
Continuous
 62
     3
100
AcDbCircle
 10
147.3501780351
 20
44.4866186805
 30
0.0
 40
0.1547729219
100
AcDbArc
 50
338.8967572706
 51
158.894068
  0
ARC
  5
438
330
217
100
AcDbEntity
  8
0
  6
Continuous
 62
     3
100
AcDbCircle
 10
148.4836705003
 20
45.79835707039999
 30
0.0
 40
0.1443979198
100
AcDbArc
 50
128.8227891809
 51
204.331441
  0
ARC
  5
439
330
217
100
AcDbEntity
  8
0
  6
Continuous
 62
     3
100
AcDbCircle
 10
152.1563238797
 20
44.4431466208
 30
0.0
 40
0.1180767292
100
AcDbArc
 50
335.6683892692
 51
155.6683892692
  0
ARC
  5
43A
330
217
100
AcDbEntity
  8
0
  6
Continuous
 62
     3
100
AcDbCircle
 10
155.3116132226
 20
46.7748827652
 30
0.0
 40
0.0789740114
100
AcDbArc
 50
24.2975107161
 51
204.2978092435
  0
ARC
  5
43B
330
217
100
AcDbEntity
  8
0
  6
Continuous
 62
     3
100
AcDbCircle
 10
152.1563238797
 20
44.4431466208
 30
0.0
 40
0.0390954613
100
AcDbArc
 50
155.6681766554
 51
335.668255
  0
CIRCLE
  5
43C
330
217
100
AcDbEntity
  8
0
  6
Continuous
 62
     3
100
AcDbCircle
 10
147.3501780351
 20
44.4866186805
 30
0.0
 40
0.0024
  0
ARC
  5
43D
330
217
100
AcDbEntity
  8
0
  6
Continuous
 62
     3
100
AcDbCircle
 10
162.9629370351
 20
39.8386926805
 30
0.0
 40
0.550491
100
AcDbArc
 50
179.999839
 51
270.0
  0
ARC
  5
43E
330
217
100
AcDbEntity
  8
0
  6
Continuous
 62
     3
100
AcDbCircle
 10
165.9906390351
 20
39.8386926805
 30
0.0
 40
0.550491
100
AcDbArc
 50
270.0
 51
90.0
  0
ARC
  5
43F
330
217
100
AcDbEntity
  8
0
  6
Continuous
 62
     3
100
AcDbCircle
 10
163.5134280351
 20
40.3891836805
 30
0.0
 40
0.4715170000000001
100
AcDbArc
 50
179.999871
 51
269.999818
  0
ARC
  5
440
330
217
100
AcDbEntity
  8
0
  6
Continuous
 62
     3
100
AcDbCircle
 10
162.9629370351
 20
39.8386926805
 30
0.0
 40
0.393319
100
AcDbArc
 50
180.0
 51
269.999778
  0
ARC
  5
441
330
217
100
AcDbEntity
  8
0
  6
Continuous
 62
     3
100
AcDbCircle
 10
165.9906390351
 20
39.8386926805
 30
0.0
 40
0.393319
100
AcDbArc
 50
270.0
 51
89.99989799999999
  0
ARC
  5
442
330
217
100
AcDbEntity
  8
0
  6
Continuous
 62
     3
100
AcDbCircle
 10
163.5134280351
 20
40.3891836805
 30
0.0
 40
0.3143455
100
AcDbArc
 50
179.999871
 51
269.9999999997999
  0
ARC
  5
443
330
217
100
AcDbEntity
  8
0
  6
Continuous
 62
     3
100
AcDbCircle
 10
162.9629370351
 20
39.8386926805
 30
0.0
 40
0.2361465
100
AcDbArc
 50
180.0
 51
269.999778
  0
ARC
  5
444
330
217
100
AcDbEntity
  8
0
  6
Continuous
 62
     3
100
AcDbCircle
 10
165.9906390351
 20
39.8386926805
 30
0.0
 40
0.2361465
100
AcDbArc
 50
270.0000000005
 51
89.99989799999999
  0
ARC
  5
445
330
217
100
AcDbEntity
  8
0
  6
Continuous
 62
     3
100
AcDbCircle
 10
163.5134280351
 20
40.3891836805
 30
0.0
 40
0.157172
100
AcDbArc
 50
179.999871
 51
270.0
  0
ARC
  5
446
330
217
100
AcDbEntity
  8
0
  6
Continuous
 62
     3
100
AcDbCircle
 10
162.9629370351
 20
39.8386926805
 30
0.0
 40
0.078974
100
AcDbArc
 50
180.0
 51
269.999778
  0
ARC
  5
447
330
217
100
AcDbEntity
  8
0
  6
Continuous
 62
     3
100
AcDbCircle
 10
165.9906390351
 20
39.8386926805
 30
0.0
 40
0.078974
100
AcDbArc
 50
270.0
 51
89.99989799999999
  0
ARC
  5
448
330
217
100
AcDbEntity
  8
0
  6
Continuous
 62
     3
100
AcDbCircle
 10
165.4217980351
 20
41.8755106805
 30
0.0
 40
0.4770930000000001
100
AcDbArc
 50
270.0
 51
90.0
  0
ARC
  5
449
330
217
100
AcDbEntity
  8
0
  6
Continuous
 62
     3
100
AcDbCircle
 10
163.5134280351
 20
41.3984176805
 30
0.0
 40
0.4715170000000001
100
AcDbArc
 50
89.999914
 51
179.999871
  0
ARC
  5
44A
330
217
100
AcDbEntity
  8
0
  6
Continuous
 62
     3
100
AcDbCircle
 10
163.5134280351
 20
42.3526036805
 30
0.0
 40
0.4715170000000001
100
AcDbArc
 50
179.999871
 51
269.999818
  0
ARC
  5
44B
330
217
100
AcDbEntity
  8
0
  6
Continuous
 62
     3
100
AcDbCircle
 10
165.4217980351
 20
41.8755106805
 30
0.0
 40
0.31992
100
AcDbArc
 50
270.0
 51
89.99989799999999
  0
ARC
  5
44C
330
217
100
AcDbEntity
  8
0
  6
Continuous
 62
     3
100
AcDbCircle
 10
163.5134280351
 20
42.3526036805
 30
0.0
 40
0.3143455
100
AcDbArc
 50
179.999871
 51
270.0000000002
  0
ARC
  5
44D
330
217
100
AcDbEntity
  8
0
  6
Continuous
 62
     3
100
AcDbCircle
 10
163.5134280351
 20
41.3984176805
 30
0.0
 40
0.3143445
100
AcDbArc
 50
89.999914
 51
179.9999999998
  0
ARC
  5
44E
330
217
100
AcDbEntity
  8
0
  6
Continuous
 62
     3
100
AcDbCircle
 10
165.4217980351
 20
41.8755106805
 30
0.0
 40
0.1627485
100
AcDbArc
 50
269.9999999997
 51
89.99989799999999
  0
ARC
  5
44F
330
217
100
AcDbEntity
  8
0
  6
Continuous
 62
     3
100
AcDbCircle
 10
163.5134280351
 20
42.3526036805
 30
0.0
 40
0.157173
100
AcDbArc
 50
179.999871
 51
270.0
  0
ARC
  5
450
330
217
100
AcDbEntity
  8
0
  6
Continuous
 62
     3
100
AcDbCircle
 10
163.5134280351
 20
41.3984176805
 30
0.0
 40
0.157172
100
AcDbArc
 50
89.999914
 51
180.0
  0
ARC
  5
451
330
217
100
AcDbEntity
  8
0
  6
Continuous
 62
     3
100
AcDbCircle
 10
165.4217980351
 20
41.8755106805
 30
0.0
 40
0.005576
100
AcDbArc
 50
270.0
 51
89.99989800020001
  0
ARC
  5
452
330
217
100
AcDbEntity
  8
0
  6
Continuous
 62
     3
100
AcDbCircle
 10
170.2125027796
 20
41.35797209889999
 30
0.0
 40
0.62869
100
AcDbArc
 50
144.431881
 51
160.629779
  0
ARC
  5
453
330
217
100
AcDbEntity
  8
0
  6
Continuous
 62
     3
100
AcDbCircle
 10
170.7868603124
 20
39.8386958448
 30
0.0
 40
0.5504931255
100
AcDbArc
 50
220.5206220479
 51
40.5204753051
  0
ARC
  5
454
330
217
100
AcDbEntity
  8
0
  6
Continuous
 62
     3
100
AcDbCircle
 10
167.8942050351
 20
39.8386926805
 30
0.0
 40
0.5504915000000001
100
AcDbArc
 50
180.0
 51
360.0
  0
ARC
  5
455
330
217
100
AcDbEntity
  8
0
  6
Continuous
 62
     3
100
AcDbCircle
 10
170.2125027796
 20
41.35797209889999
 30
0.0
 40
0.4715173346000001
100
AcDbArc
 50
129.0280972181
 51
172.3307209999999
  0
ARC
  5
456
330
217
100
AcDbEntity
  8
0
  6
Continuous
 62
     3
100
AcDbCircle
 10
167.8942050351
 20
39.8386926805
 30
0.0
 40
0.393319
100
AcDbArc
 50
180.0
 51
359.999844
  0
ARC
  5
457
330
217
100
AcDbEntity
  8
0
  6
Continuous
 62
     3
100
AcDbCircle
 10
170.7868603124
 20
39.8386958448
 30
0.0
 40
0.3933189775
100
AcDbArc
 50
220.5206493376
 51
40.520474
  0
ARC
  5
458
330
217
100
AcDbEntity
  8
0
  6
Continuous
 62
     3
100
AcDbCircle
 10
170.2125027796
 20
41.35797209889999
 30
0.0
 40
0.3143466416
100
AcDbArc
 50
105.10116
 51
220.5206923145
  0
ARC
  5
459
330
217
100
AcDbEntity
  8
0
  6
Continuous
 62
     3
100
AcDbCircle
 10
170.7868603124
 20
39.8386958448
 30
0.0
 40
0.2361471979
100
AcDbArc
 50
220.5205285122
 51
40.520474
  0
ARC
  5
45A
330
217
100
AcDbEntity
  8
0
  6
Continuous
 62
     3
100
AcDbCircle
 10
167.8942050351
 20
39.8386926805
 30
0.0
 40
0.236147
100
AcDbArc
 50
180.0
 51
359.999844
  0
ARC
  5
45B
330
217
100
AcDbEntity
  8
0
  6
Continuous
 62
     3
100
AcDbCircle
 10
170.2125027796
 20
41.35797209889999
 30
0.0
 40
0.1571747322
100
AcDbArc
 50
105.10116
 51
220.5208308678
  0
ARC
  5
45C
330
217
100
AcDbEntity
  8
0
  6
Continuous
 62
     3
100
AcDbCircle
 10
170.7868603124
 20
39.8386958448
 30
0.0
 40
0.0789750681
100
AcDbArc
 50
220.5204782679
 51
40.520474
  0
ARC
  5
45D
330
217
100
AcDbEntity
  8
0
  6
Continuous
 62
     3
100
AcDbCircle
 10
167.8942050351
 20
39.8386926805
 30
0.0
 40
0.0789745
100
AcDbArc
 50
180.0
 51
359.999844
  0
ARC
  5
45E
330
217
100
AcDbEntity
  8
0
  6
Continuous
 62
     3
100
AcDbCircle
 10
169.8009493513
 20
42.88312368599999
 30
0.0
 40
1.579703639399999
100
AcDbArc
 50
285.1012587971
 51
89.999914
  0
ARC
  5
45F
330
217
100
AcDbEntity
  8
0
  6
Continuous
 62
     3
100
AcDbCircle
 10
169.8009493513
 20
42.88312368599999
 30
0.0
 40
1.4225289072
100
AcDbArc
 50
285.1012697132
 51
89.999914
  0
ARC
  5
460
330
217
100
AcDbEntity
  8
0
  6
Continuous
 62
     3
100
AcDbCircle
 10
169.8009493513
 20
42.88312368599999
 30
0.0
 40
1.265356997699999
100
AcDbArc
 50
285.1012833408
 51
89.999914
  0
ARC
  5
461
330
217
100
AcDbEntity
  8
0
  6
Continuous
 62
     3
100
AcDbCircle
 10
169.8009493513
 20
42.88312368599999
 30
0.0
 40
1.108184999999999
100
AcDbArc
 50
9.863851999999999
 51
89.999914
  0
ARC
  5
462
330
217
100
AcDbEntity
  8
0
  6
Continuous
 62
     3
100
AcDbCircle
 10
169.8236240351
 20
42.83105568049999
 30
0.0
 40
1.081345999999999
100
AcDbArc
 50
226.852913
 51
227.241625
  0
ARC
  5
463
330
217
100
AcDbEntity
  8
0
  6
Continuous
 62
     3
100
AcDbCircle
 10
169.8798325351
 20
42.77850718049999
 30
0.0
 40
1.054848999999999
100
AcDbArc
 50
269.999818
 51
271.9424669999999
  0
ARC
  5
464
330
217
100
AcDbEntity
  8
0
  6
Continuous
 62
     3
100
AcDbCircle
 10
169.8798325351
 20
42.77850718049999
 30
0.0
 40
1.0548485
100
AcDbArc
 50
272.790542
 51
90.0
  0
ARC
  5
465
330
217
100
AcDbEntity
  8
0
  6
Continuous
 62
     3
100
AcDbCircle
 10
169.8798325351
 20
42.77850718049999
 30
0.0
 40
0.8976749999999999
100
AcDbArc
 50
269.999818
 51
90.0000000001
  0
ARC
  5
466
330
217
100
AcDbEntity
  8
0
  6
Continuous
 62
     3
100
AcDbCircle
 10
169.8798325351
 20
42.77850718049999
 30
0.0
 40
0.7405040000000001
100
AcDbArc
 50
269.999818
 51
90.0
  0
ARC
  5
467
330
217
100
AcDbEntity
  8
0
  6
Continuous
 62
     3
100
AcDbCircle
 10
169.8798325351
 20
42.77850718049999
 30
0.0
 40
0.5833295000000001
100
AcDbArc
 50
270.0
 51
90.0000000002
  0
ARC
  5
468
330
217
100
AcDbEntity
  8
0
  6
Continuous
 62
     3
100
AcDbCircle
 10
169.1139425351
 20
41.7042821805
 30
0.0
 40
0.4908955
100
AcDbArc
 50
90.00000000040001
 51
220.5205001142
  0
ARC
  5
469
330
217
100
AcDbEntity
  8
0
  6
Continuous
 62
     3
100
AcDbCircle
 10
169.1139425351
 20
41.7042821805
 30
0.0
 40
0.333721
100
AcDbArc
 50
90.00000000049999
 51
220.520378
  0
ARC
  5
46A
330
217
100
AcDbEntity
  8
0
  6
Continuous
 62
     3
100
AcDbCircle
 10
169.1139425351
 20
41.7042821805
 30
0.0
 40
0.176549
100
AcDbArc
 50
90.0
 51
220.520378
  0
ARC
  5
46B
330
217
100
AcDbEntity
  8
0
  6
Continuous
 62
     3
100
AcDbCircle
 10
169.1139425351
 20
41.7042821805
 30
0.0
 40
0.019377
100
AcDbArc
 50
90.0
 51
220.5203779999
  0
ARC
  5
46C
330
217
100
AcDbEntity
  8
0
  6
Continuous
 62
     3
100
AcDbCircle
 10
161.0645424566
 20
43.9123290698
 30
0.0
 40
0.5504915968000001
100
AcDbArc
 50
335.7023079384
 51
155.7024222078
  0
ARC
  5
46D
330
217
100
AcDbEntity
  8
0
  6
Continuous
 62
     3
100
AcDbCircle
 10
167.8942055351
 20
43.9123286805
 30
0.0
 40
0.550491
100
AcDbArc
 50
90.0
 51
179.999839
  0
ARC
  5
46E
330
217
100
AcDbEntity
  8
0
  6
Continuous
 62
     3
100
AcDbCircle
 10
165.9906387851
 20
43.9123284305
 30
0.0
 40
0.55049075
100
AcDbArc
 50
270.0000260203
 51
90.00002602030001
  0
ARC
  5
46F
330
217
100
AcDbEntity
  8
0
  6
Continuous
 62
     3
100
AcDbCircle
 10
162.9629365351
 20
43.9123286805
 30
0.0
 40
0.5504905
100
AcDbArc
 50
90.0
 51
179.9998389999
  0
ARC
  5
470
330
217
100
AcDbEntity
  8
0
  6
Continuous
 62
     3
100
AcDbCircle
 10
163.5134280351
 20
43.3618376805
 30
0.0
 40
0.4715170000000001
100
AcDbArc
 50
89.999914
 51
179.999871
  0
ARC
  5
471
330
217
100
AcDbEntity
  8
0
  6
Continuous
 62
     3
100
AcDbCircle
 10
168.4446965351
 20
43.3618366805
 30
0.0
 40
0.4715170000000001
100
AcDbArc
 50
89.999914
 51
179.999871
  0
ARC
  5
472
330
217
100
AcDbEntity
  8
0
  6
Continuous
 62
     3
100
AcDbCircle
 10
165.9906387851
 20
43.9123284305
 30
0.0
 40
0.39331975
100
AcDbArc
 50
270.0
 51
89.9999344183
  0
ARC
  5
473
330
217
100
AcDbEntity
  8
0
  6
Continuous
 62
     3
100
AcDbCircle
 10
167.8942055351
 20
43.9123286805
 30
0.0
 40
0.3933195
100
AcDbArc
 50
90.0
 51
179.9998390002
  0
ARC
  5
474
330
217
100
AcDbEntity
  8
0
  6
Continuous
 62
     3
100
AcDbCircle
 10
161.0645424566
 20
43.9123290698
 30
0.0
 40
0.3933189314
100
AcDbArc
 50
335.702271163
 51
155.702271163
  0
ARC
  5
475
330
217
100
AcDbEntity
  8
0
  6
Continuous
 62
     3
100
AcDbCircle
 10
162.9629365351
 20
43.9123286805
 30
0.0
 40
0.3933185
100
AcDbArc
 50
90.0
 51
180.0
  0
ARC
  5
476
330
217
100
AcDbEntity
  8
0
  6
Continuous
 62
     3
100
AcDbCircle
 10
168.4446965351
 20
43.3618366805
 30
0.0
 40
0.3143455
100
AcDbArc
 50
89.999914
 51
180.0
  0
ARC
  5
477
330
217
100
AcDbEntity
  8
0
  6
Continuous
 62
     3
100
AcDbCircle
 10
163.5134280351
 20
43.3618376805
 30
0.0
 40
0.3143445
100
AcDbArc
 50
89.999914
 51
179.9999999998
  0
ARC
  5
478
330
217
100
AcDbEntity
  8
0
  6
Continuous
 62
     3
100
AcDbCircle
 10
167.8942055351
 20
43.9123286805
 30
0.0
 40
0.2361475
100
AcDbArc
 50
90.0
 51
179.9998390003
  0
ARC
  5
479
330
217
100
AcDbEntity
  8
0
  6
Continuous
 62
     3
100
AcDbCircle
 10
165.9906387851
 20
43.9123284305
 30
0.0
 40
0.23614725
100
AcDbArc
 50
270.0
 51
89.99995865690001
  0
ARC
  5
47A
330
217
100
AcDbEntity
  8
0
  6
Continuous
 62
     3
100
AcDbCircle
 10
162.9629365351
 20
43.9123286805
 30
0.0
 40
0.236146
100
AcDbArc
 50
90.0
 51
180.0
  0
ARC
  5
47B
330
217
100
AcDbEntity
  8
0
  6
Continuous
 62
     3
100
AcDbCircle
 10
161.0645424566
 20
43.9123290698
 30
0.0
 40
0.2361452448
100
AcDbArc
 50
335.7021670655
 51
155.702244
  0
ARC
  5
47C
330
217
100
AcDbEntity
  8
0
  6
Continuous
 62
     3
100
AcDbCircle
 10
168.4446965351
 20
43.3618366805
 30
0.0
 40
0.1571735
100
AcDbArc
 50
89.999914
 51
180.0
  0
ARC
  5
47D
330
217
100
AcDbEntity
  8
0
  6
Continuous
 62
     3
100
AcDbCircle
 10
163.5134280351
 20
43.3618376805
 30
0.0
 40
0.157173
100
AcDbArc
 50
89.999914
 51
179.9999999992
  0
ARC
  5
47E
330
217
100
AcDbEntity
  8
0
  6
Continuous
 62
     3
100
AcDbCircle
 10
167.8942055351
 20
43.9123286805
 30
0.0
 40
0.078974
100
AcDbArc
 50
90.0
 51
179.999839
  0
ARC
  5
47F
330
217
100
AcDbEntity
  8
0
  6
Continuous
 62
     3
100
AcDbCircle
 10
165.9906387851
 20
43.9123284305
 30
0.0
 40
0.07897375
100
AcDbArc
 50
270.0
 51
90.0000793757
  0
ARC
  5
480
330
217
100
AcDbEntity
  8
0
  6
Continuous
 62
     3
100
AcDbCircle
 10
161.0645424566
 20
43.9123290698
 30
0.0
 40
0.0789737195
100
AcDbArc
 50
335.701947152
 51
155.702244
  0
ARC
  5
481
330
217
100
AcDbEntity
  8
0
  6
Continuous
 62
     3
100
AcDbCircle
 10
162.9629365351
 20
43.9123286805
 30
0.0
 40
0.0789735
100
AcDbArc
 50
90.0
 51
180.0
  0
ARC
  5
482
330
217
100
AcDbEntity
  8
0
  6
Continuous
 62
     3
100
AcDbCircle
 10
181.5376178075
 20
40.18665231059999
 30
0.0
 40
0.8984517337999999
100
AcDbArc
 50
205.5094107483
 51
359.999844
  0
ARC
  5
483
330
217
100
AcDbEntity
  8
0
  6
Continuous
 62
     3
100
AcDbCircle
 10
181.5376178075
 20
40.18665231059999
 30
0.0
 40
0.7569967338
100
AcDbArc
 50
205.5094312332
 51
359.999844
  0
ARC
  5
484
330
217
100
AcDbEntity
  8
0
  6
Continuous
 62
     3
100
AcDbCircle
 10
181.5376178075
 20
40.18665231059999
 30
0.0
 40
0.6155412402
100
AcDbArc
 50
205.509443
 51
359.999844
  0
ARC
  5
485
330
217
100
AcDbEntity
  8
0
  6
Continuous
 62
     3
100
AcDbCircle
 10
176.8618819625
 20
41.6863565838
 30
0.0
 40
0.5350549399000001
100
AcDbArc
 50
352.9043334654
 51
90.0
  0
ARC
  5
486
330
217
100
AcDbEntity
  8
0
  6
Continuous
 62
     3
100
AcDbCircle
 10
185.3626050351
 20
41.0956476805
 30
0.0
 40
0.504617
100
AcDbArc
 50
89.99989799999999
 51
269.99978
  0
ARC
  5
487
330
217
100
AcDbEntity
  8
0
  6
Continuous
 62
     3
100
AcDbCircle
 10
178.7110780351
 20
39.7836436805
 30
0.0
 40
0.495442
100
AcDbArc
 50
179.999842
 51
359.999831
  0
ARC
  5
488
330
217
100
AcDbEntity
  8
0
  6
Continuous
 62
     3
100
AcDbCircle
 10
183.6752850032
 20
39.7652936951
 30
0.0
 40
0.477092475
100
AcDbArc
 50
155.4400467078
 51
335.4400966241
  0
ARC
  5
489
330
217
100
AcDbEntity
  8
0
  6
Continuous
 62
     3
100
AcDbCircle
 10
181.5376178075
 20
40.18665231059999
 30
0.0
 40
0.4740863113
100
AcDbArc
 50
205.5094332851
 51
359.999844
  0
ARC
  5
48A
330
217
100
AcDbEntity
  8
0
  6
Continuous
 62
     3
100
AcDbCircle
 10
176.2345633939
 20
41.30135352369999
 30
0.0
 40
0.4715172650000001
100
AcDbArc
 50
336.397911
 51
90.0
  0
ARC
  5
48B
330
217
100
AcDbEntity
  8
0
  6
Continuous
 62
     3
100
AcDbCircle
 10
174.7537923939
 20
41.7613825237
 30
0.0
 40
0.4600290000000001
100
AcDbArc
 50
90.0
 51
270.0
  0
ARC
  5
48C
330
217
100
AcDbEntity
  8
0
  6
Continuous
 62
     3
100
AcDbCircle
 10
176.8618819625
 20
41.6863565838
 30
0.0
 40
0.3778829399000001
100
AcDbArc
 50
352.9041419163
 51
89.999914
  0
ARC
  5
48D
330
217
100
AcDbEntity
  8
0
  6
Continuous
 62
     3
100
AcDbCircle
 10
181.5112960350999
 20
40.2239406805
 30
0.0
 40
0.358254
100
AcDbArc
 50
201.736185
 51
8.263635
  0
ARC
  5
48E
330
217
100
AcDbEntity
  8
0
  6
Continuous
 62
     3
100
AcDbCircle
 10
178.7110780351
 20
39.7836436805
 30
0.0
 40
0.353987
100
AcDbArc
 50
180.0
 51
359.999831
  0
ARC
  5
48F
330
217
100
AcDbEntity
  8
0
  6
Continuous
 62
     3
100
AcDbCircle
 10
185.3626050351
 20
41.0956476805
 30
0.0
 40
0.347445
100
AcDbArc
 50
90.0
 51
269.99978
  0
ARC
  5
490
330
217
100
AcDbEntity
  8
0
  6
Continuous
 62
     3
100
AcDbCircle
 10
183.6752850032
 20
39.7652936951
 30
0.0
 40
0.3199200351
100
AcDbArc
 50
155.4400931927
 51
335.439961
  0
ARC
  5
491
330
217
100
AcDbEntity
  8
0
  6
Continuous
 62
     3
100
AcDbCircle
 10
176.2345633939
 20
41.30135352369999
 30
0.0
 40
0.314345
100
AcDbArc
 50
336.397911
 51
90.0
  0
ARC
  5
492
330
217
100
AcDbEntity
  8
0
  6
Continuous
 62
     3
100
AcDbCircle
 10
174.7537923939
 20
41.7613825237
 30
0.0
 40
0.302857
100
AcDbArc
 50
90.0
 51
269.999818
  0
ARC
  5
493
330
217
100
AcDbEntity
  8
0
  6
Continuous
 62
     3
100
AcDbCircle
 10
181.4451841938
 20
40.76542339239999
 30
0.0
 40
0.28291
100
AcDbArc
 50
205.509325
 51
359.999858
  0
ARC
  5
494
330
217
100
AcDbEntity
  8
0
  6
Continuous
 62
     3
100
AcDbCircle
 10
181.4848301622
 20
40.26182185449999
 30
0.0
 40
0.2432648335
100
AcDbArc
 50
205.509358357
 51
360.0
  0
ARC
  5
495
330
217
100
AcDbEntity
  8
0
  6
Continuous
 62
     3
100
AcDbCircle
 10
181.4891930351
 20
40.5710096805
 30
0.0
 40
0.238902
100
AcDbArc
 50
205.509325
 51
359.999852
  0
ARC
  5
496
330
217
100
AcDbEntity
  8
0
  6
Continuous
 62
     3
100
AcDbCircle
 10
176.8618819625
 20
41.6863565838
 30
0.0
 40
0.22070994
100
AcDbArc
 50
352.9036775514
 51
89.9998020335
  0
ARC
  5
497
330
217
100
AcDbEntity
  8
0
  6
Continuous
 62
     3
100
AcDbCircle
 10
178.7110780351
 20
39.7836436805
 30
0.0
 40
0.212532
100
AcDbArc
 50
180.0
 51
359.999831
  0
ARC
  5
498
330
217
100
AcDbEntity
  8
0
  6
Continuous
 62
     3
100
AcDbCircle
 10
181.5300570351
 20
40.3904856805
 30
0.0
 40
0.198038
100
AcDbArc
 50
190.151753
 51
15.357538
  0
ARC
  5
499
330
217
100
AcDbEntity
  8
0
  6
Continuous
 62
     3
100
AcDbCircle
 10
185.3626050351
 20
41.0956476805
 30
0.0
 40
0.190272
100
AcDbArc
 50
90.0
 51
269.99978
  0
ARC
  5
49A
330
217
100
AcDbEntity
  8
0
  6
Continuous
 62
     3
100
AcDbCircle
 10
183.6752850032
 20
39.7652936951
 30
0.0
 40
0.1627476053
100
AcDbArc
 50
155.4400831335
 51
335.439961
  0
ARC
  5
49B
330
217
100
AcDbEntity
  8
0
  6
Continuous
 62
     3
100
AcDbCircle
 10
176.2345633939
 20
41.30135352369999
 30
0.0
 40
0.157172
100
AcDbArc
 50
336.397911
 51
90.0
  0
ARC
  5
49C
330
217
100
AcDbEntity
  8
0
  6
Continuous
 62
     3
100
AcDbCircle
 10
174.7537923939
 20
41.7613825237
 30
0.0
 40
0.145684
100
AcDbArc
 50
90.0
 51
269.999818
  0
ARC
  5
49D
330
217
100
AcDbEntity
  8
0
  6
Continuous
 62
     3
100
AcDbCircle
 10
181.4451841938
 20
40.76542339239999
 30
0.0
 40
0.141455
100
AcDbArc
 50
205.5094755594
 51
360.0
  0
ARC
  5
49E
330
217
100
AcDbEntity
  8
0
  6
Continuous
 62
     3
100
AcDbCircle
 10
178.7110780351
 20
39.7836436805
 30
0.0
 40
0.071077
100
AcDbArc
 50
180.0
 51
359.999831
  0
ARC
  5
49F
330
217
100
AcDbEntity
  8
0
  6
Continuous
 62
     3
100
AcDbCircle
 10
176.8618819625
 20
41.6863565838
 30
0.0
 40
0.063537675
100
AcDbArc
 50
352.9009158081
 51
89.999914
  0
ARC
  5
4A0
330
217
100
AcDbEntity
  8
0
  6
Continuous
 62
     3
100
AcDbCircle
 10
174.7537923939
 20
41.7613825237
 30
0.0
 40
0.011488265
100
AcDbArc
 50
269.9978489228
 51
89.999914
  0
ARC
  5
4A1
330
217
100
AcDbEntity
  8
0
  6
Continuous
 62
     3
100
AcDbCircle
 10
183.6752850032
 20
39.7652936951
 30
0.0
 40
0.0055751303
100
AcDbArc
 50
155.4437774107
 51
335.4399610002
  0
ARC
  5
4A2
330
217
100
AcDbEntity
  8
0
  6
Continuous
 62
     3
100
AcDbCircle
 10
174.7525060351
 20
41.9489096805
 30
0.0
 40
2.660708
100
AcDbArc
 50
46.8706793908
 51
352.904794
  0
ARC
  5
4A3
330
217
100
AcDbEntity
  8
0
  6
Continuous
 62
     3
100
AcDbCircle
 10
174.7525060351
 20
41.9489096805
 30
0.0
 40
2.503535999999999
100
AcDbArc
 50
46.87067602529999
 51
352.904794
  0
ARC
  5
4A4
330
217
100
AcDbEntity
  8
0
  6
Continuous
 62
     3
100
AcDbCircle
 10
174.7525060351
 20
41.9489096805
 30
0.0
 40
2.346363
100
AcDbArc
 50
46.870733
 51
352.904794
  0
ARC
  5
4A5
330
217
100
AcDbEntity
  8
0
  6
Continuous
 62
     3
100
AcDbCircle
 10
174.7525060351
 20
41.9489096805
 30
0.0
 40
2.189190734899999
100
AcDbArc
 50
46.870733
 51
352.904794
  0
ARC
  5
4A6
330
217
100
AcDbEntity
  8
0
  6
Continuous
 62
     3
100
AcDbCircle
 10
174.7525060351
 20
41.9489096805
 30
0.0
 40
2.088867873599999
100
AcDbArc
 50
46.870733
 51
350.8211075973
  0
ARC
  5
4A7
330
217
100
AcDbEntity
  8
0
  6
Continuous
 62
     3
100
AcDbCircle
 10
174.7525060351
 20
41.9489096805
 30
0.0
 40
1.931695608499999
100
AcDbArc
 50
46.870733
 51
336.3979961538
  0
ARC
  5
4A8
330
217
100
AcDbEntity
  8
0
  6
Continuous
 62
     3
100
AcDbCircle
 10
174.7525060351
 20
41.9489096805
 30
0.0
 40
1.774522608499999
100
AcDbArc
 50
46.870733
 51
336.398003696
  0
ARC
  5
4A9
330
217
100
AcDbEntity
  8
0
  6
Continuous
 62
     3
100
AcDbCircle
 10
174.7525060351
 20
41.9489096805
 30
0.0
 40
1.617350608499999
100
AcDbArc
 50
46.870733
 51
336.3980127041
  0
ARC
  5
4AA
330
217
100
AcDbEntity
  8
0
  6
Continuous
 62
     3
100
AcDbCircle
 10
179.1140887977
 20
43.5643666805
 30
0.0
 40
0.8984527626
100
AcDbArc
 50
25.5094558795
 51
180.0
  0
ARC
  5
4AB
330
217
100
AcDbEntity
  8
0
  6
Continuous
 62
     3
100
AcDbCircle
 10
179.1140887977
 20
43.5643666805
 30
0.0
 40
0.7569977626000001
100
AcDbArc
 50
25.509452202
 51
179.999842
  0
ARC
  5
4AC
330
217
100
AcDbEntity
  8
0
  6
Continuous
 62
     3
100
AcDbCircle
 10
179.1140887977
 20
43.5643666805
 30
0.0
 40
0.6155427626
100
AcDbArc
 50
25.5093628269
 51
179.999842
  0
ARC
  5
4AD
330
217
100
AcDbEntity
  8
0
  6
Continuous
 62
     3
100
AcDbCircle
 10
176.2148462648
 20
43.5100014193
 30
0.0
 40
0.5216786958000001
100
AcDbArc
 50
226.870733
 51
46.87045957819999
  0
ARC
  5
4AE
330
217
100
AcDbEntity
  8
0
  6
Continuous
 62
     3
100
AcDbCircle
 10
181.9406269957
 20
43.9673778545
 30
0.0
 40
0.4954428019
100
AcDbArc
 50
359.999831
 51
179.9998954395999
  0
ARC
  5
4AF
330
217
100
AcDbEntity
  8
0
  6
Continuous
 62
     3
100
AcDbCircle
 10
179.1140887977
 20
43.5643666805
 30
0.0
 40
0.4740877626
100
AcDbArc
 50
25.5093812378
 51
179.999842
  0
ARC
  5
4B0
330
217
100
AcDbEntity
  8
0
  6
Continuous
 62
     3
100
AcDbCircle
 10
176.2148462648
 20
43.5100014193
 30
0.0
 40
0.3645066958
100
AcDbArc
 50
226.870733
 51
46.87034168140001
  0
ARC
  5
4B1
330
217
100
AcDbEntity
  8
0
  6
Continuous
 62
     3
100
AcDbCircle
 10
179.1406230351
 20
43.5278066805
 30
0.0
 40
0.358468
100
AcDbArc
 50
21.76665
 51
188.23317
  0
ARC
  5
4B2
330
217
100
AcDbEntity
  8
0
  6
Continuous
 62
     3
100
AcDbCircle
 10
181.9406269957
 20
43.9673778545
 30
0.0
 40
0.3539878019
100
AcDbArc
 50
0.0
 51
179.9999167941999
  0
ARC
  5
4B3
330
217
100
AcDbEntity
  8
0
  6
Continuous
 62
     3
100
AcDbCircle
 10
179.2065200350999
 20
42.9856036805
 30
0.0
 40
0.28291
100
AcDbArc
 50
25.509422
 51
179.999869
  0
ARC
  5
4B4
330
217
100
AcDbEntity
  8
0
  6
Continuous
 62
     3
100
AcDbCircle
 10
179.1664545827
 20
43.49106268049999
 30
0.0
 40
0.2428445476
100
AcDbArc
 50
25.5095392923
 51
180.0
  0
ARC
  5
4B5
330
217
100
AcDbEntity
  8
0
  6
Continuous
 62
     3
100
AcDbCircle
 10
179.1664020351
 20
43.1628316805
 30
0.0
 40
0.242792
100
AcDbArc
 50
25.509422
 51
179.999869
  0
ARC
  5
4B6
330
217
100
AcDbEntity
  8
0
  6
Continuous
 62
     3
100
AcDbCircle
 10
181.9406269957
 20
43.9673778545
 30
0.0
 40
0.212532
100
AcDbArc
 50
0.0
 51
179.999842
  0
ARC
  5
4B7
330
217
100
AcDbEntity
  8
0
  6
Continuous
 62
     3
100
AcDbCircle
 10
176.2148462648
 20
43.5100014193
 30
0.0
 40
0.2073336958
100
AcDbArc
 50
226.870733
 51
46.870733
  0
ARC
  5
4B8
330
217
100
AcDbEntity
  8
0
  6
Continuous
 62
     3
100
AcDbCircle
 10
179.1214055756
 20
43.36161119989999
 30
0.0
 40
0.1977955029
100
AcDbArc
 50
25.5093252154
 51
183.58674
  0
ARC
  5
4B9
330
217
100
AcDbEntity
  8
0
  6
Continuous
 62
     3
100
AcDbCircle
 10
179.2065200350999
 20
42.9856036805
 30
0.0
 40
0.141455
100
AcDbArc
 50
25.5093011231
 51
180.0
  0
ARC
  5
4BA
330
217
100
AcDbEntity
  8
0
  6
Continuous
 62
     3
100
AcDbCircle
 10
181.9406269957
 20
43.9673778545
 30
0.0
 40
0.071077
100
AcDbArc
 50
0.0
 51
179.999842
  0
ARC
  5
4BB
330
217
100
AcDbEntity
  8
0
  6
Continuous
 62
     3
100
AcDbCircle
 10
176.2148462648
 20
43.5100014193
 30
0.0
 40
0.0501614307
100
AcDbArc
 50
226.870733
 51
46.870733
  0
ARC
  5
4BC
330
217
100
AcDbEntity
  8
0
  6
Continuous
 62
     3
100
AcDbCircle
 10
193.0306921708
 20
40.18665269929999
 30
0.0
 40
0.8984519999999999
100
AcDbArc
 50
324.69447
 51
359.999844
  0
ARC
  5
4BD
330
217
100
AcDbEntity
  8
0
  6
Continuous
 62
     3
100
AcDbCircle
 10
193.0306921708
 20
40.18665269929999
 30
0.0
 40
0.8984513265
100
AcDbArc
 50
205.5094506055
 51
215.305487
  0
ARC
  5
4BE
330
217
100
AcDbEntity
  8
0
  6
Continuous
 62
     3
100
AcDbCircle
 10
193.0306921708
 20
40.18665269929999
 30
0.0
 40
0.7569964687000001
100
AcDbArc
 50
205.5094459426
 51
359.999844
  0
ARC
  5
4BF
330
217
100
AcDbEntity
  8
0
  6
Continuous
 62
     3
100
AcDbCircle
 10
193.0306921708
 20
40.18665269929999
 30
0.0
 40
0.615540789
100
AcDbArc
 50
205.5094830867
 51
359.999844
  0
ARC
  5
4C0
330
217
100
AcDbEntity
  8
0
  6
Continuous
 62
     3
100
AcDbCircle
 10
190.2041530351
 20
39.7836436805
 30
0.0
 40
0.495442
100
AcDbArc
 50
179.999842
 51
360.0
  0
ARC
  5
4C1
330
217
100
AcDbEntity
  8
0
  6
Continuous
 62
     3
100
AcDbCircle
 10
188.424266954
 20
39.7683566435
 30
0.0
 40
0.4801558988
100
AcDbArc
 50
204.5598846252
 51
24.559844
  0
ARC
  5
4C2
330
217
100
AcDbEntity
  8
0
  6
Continuous
 62
     3
100
AcDbCircle
 10
193.0306921708
 20
40.18665269929999
 30
0.0
 40
0.4740858601
100
AcDbArc
 50
205.5094853326
 51
359.999844
  0
ARC
  5
4C3
330
217
100
AcDbEntity
  8
0
  6
Continuous
 62
     3
100
AcDbCircle
 10
187.5203960351
 20
40.5910306805
 30
0.0
 40
0.4715170000000001
100
AcDbArc
 50
24.559844
 51
90.0
  0
ARC
  5
4C4
330
217
100
AcDbEntity
  8
0
  6
Continuous
 62
     3
100
AcDbCircle
 10
193.0043710350999
 20
40.2239406805
 30
0.0
 40
0.358254
100
AcDbArc
 50
201.736185
 51
8.263635
  0
ARC
  5
4C5
330
217
100
AcDbEntity
  8
0
  6
Continuous
 62
     3
100
AcDbCircle
 10
190.2041530351
 20
39.7836436805
 30
0.0
 40
0.353987
100
AcDbArc
 50
180.0
 51
359.999831
  0
ARC
  5
4C6
330
217
100
AcDbEntity
  8
0
  6
Continuous
 62
     3
100
AcDbCircle
 10
188.424266954
 20
39.7683566435
 30
0.0
 40
0.3229830392
100
AcDbArc
 50
204.5598788994
 51
24.559844
  0
ARC
  5
4C7
330
217
100
AcDbEntity
  8
0
  6
Continuous
 62
     3
100
AcDbCircle
 10
187.0591870351
 20
41.6002646805
 30
0.0
 40
0.314345
100
AcDbArc
 50
269.999818
 51
24.559844
  0
ARC
  5
4C8
330
217
100
AcDbEntity
  8
0
  6
Continuous
 62
     3
100
AcDbCircle
 10
187.5203960351
 20
40.5910306805
 30
0.0
 40
0.314345
100
AcDbArc
 50
24.559844
 51
90.0
  0
ARC
  5
4C9
330
217
100
AcDbEntity
  8
0
  6
Continuous
 62
     3
100
AcDbCircle
 10
192.9382591938
 20
40.76542339239999
 30
0.0
 40
0.28291
100
AcDbArc
 50
205.509325
 51
359.999858
  0
ARC
  5
4CA
330
217
100
AcDbEntity
  8
0
  6
Continuous
 62
     3
100
AcDbCircle
 10
187.1809210350999
 20
41.4397616805
 30
0.0
 40
0.270337
100
AcDbArc
 50
269.999818
 51
24.559844
  0
ARC
  5
4CB
330
217
100
AcDbEntity
  8
0
  6
Continuous
 62
     3
100
AcDbCircle
 10
187.6198050351
 20
40.8990881805
 30
0.0
 40
0.2703365
100
AcDbArc
 50
24.559844
 51
90.0
  0
ARC
  5
4CC
330
217
100
AcDbEntity
  8
0
  6
Continuous
 62
     3
100
AcDbCircle
 10
192.9779051622
 20
40.26182185449999
 30
0.0
 40
0.2432648335
100
AcDbArc
 50
205.509358357
 51
360.0
  0
ARC
  5
4CD
330
217
100
AcDbEntity
  8
0
  6
Continuous
 62
     3
100
AcDbCircle
 10
192.9822680351
 20
40.5710096805
 30
0.0
 40
0.238902
100
AcDbArc
 50
205.509325
 51
359.999852
  0
ARC
  5
4CE
330
217
100
AcDbEntity
  8
0
  6
Continuous
 62
     3
100
AcDbCircle
 10
190.2041530351
 20
39.7836436805
 30
0.0
 40
0.212532
100
AcDbArc
 50
180.0
 51
359.999831
  0
ARC
  5
4CF
330
217
100
AcDbEntity
  8
0
  6
Continuous
 62
     3
100
AcDbCircle
 10
193.0231320351
 20
40.3904856805
 30
0.0
 40
0.198038
100
AcDbArc
 50
190.151753
 51
15.357538
  0
ARC
  5
4D0
330
217
100
AcDbEntity
  8
0
  6
Continuous
 62
     3
100
AcDbCircle
 10
188.424266954
 20
39.7683566435
 30
0.0
 40
0.1658110891
100
AcDbArc
 50
204.5597186935
 51
24.559844
  0
ARC
  5
4D1
330
217
100
AcDbEntity
  8
0
  6
Continuous
 62
     3
100
AcDbCircle
 10
187.0591870351
 20
41.6002646805
 30
0.0
 40
0.157172
100
AcDbArc
 50
269.999818
 51
24.5600479112
  0
ARC
  5
4D2
330
217
100
AcDbEntity
  8
0
  6
Continuous
 62
     3
100
AcDbCircle
 10
187.5203960351
 20
40.5910306805
 30
0.0
 40
0.157172
100
AcDbArc
 50
24.559844
 51
90.0
  0
ARC
  5
4D3
330
217
100
AcDbEntity
  8
0
  6
Continuous
 62
     3
100
AcDbCircle
 10
192.9382591938
 20
40.76542339239999
 30
0.0
 40
0.1414542397
100
AcDbArc
 50
205.5093249993
 51
360.0
  0
ARC
  5
4D4
330
217
100
AcDbEntity
  8
0
  6
Continuous
 62
     3
100
AcDbCircle
 10
187.4353390351
 20
41.2763026805
 30
0.0
 40
0.106877
100
AcDbArc
 50
269.999818
 51
24.559844
  0
ARC
  5
4D5
330
217
100
AcDbEntity
  8
0
  6
Continuous
 62
     3
100
AcDbCircle
 10
190.2041530351
 20
39.7836436805
 30
0.0
 40
0.071077
100
AcDbArc
 50
180.0
 51
359.999831
  0
CIRCLE
  5
4D6
330
217
100
AcDbEntity
  8
0
  6
Continuous
 62
     3
100
AcDbCircle
 10
197.3006860351
 20
41.8755106805
 30
0.0
 40
2.568958999999999
  0
CIRCLE
  5
4D7
330
217
100
AcDbEntity
  8
0
  6
Continuous
 62
     3
100
AcDbCircle
 10
197.3006860351
 20
41.8755106805
 30
0.0
 40
2.431275999999999
  0
CIRCLE
  5
4D8
330
217
100
AcDbEntity
  8
0
  6
Continuous
 62
     3
100
AcDbCircle
 10
197.3006860351
 20
41.8755106805
 30
0.0
 40
2.293592999999999
  0
CIRCLE
  5
4D9
330
217
100
AcDbEntity
  8
0
  6
Continuous
 62
     3
100
AcDbCircle
 10
197.3006860351
 20
41.8755106805
 30
0.0
 40
2.155909999999999
  0
CIRCLE
  5
4DA
330
217
100
AcDbEntity
  8
0
  6
Continuous
 62
     3
100
AcDbCircle
 10
197.3006860351
 20
41.8755106805
 30
0.0
 40
2.018226999999999
  0
CIRCLE
  5
4DB
330
217
100
AcDbEntity
  8
0
  6
Continuous
 62
     3
100
AcDbCircle
 10
197.3006860351
 20
41.8755106805
 30
0.0
 40
1.880543999999999
  0
CIRCLE
  5
4DC
330
217
100
AcDbEntity
  8
0
  6
Continuous
 62
     3
100
AcDbCircle
 10
197.3006860351
 20
41.8755106805
 30
0.0
 40
1.742860999999999
  0
CIRCLE
  5
4DD
330
217
100
AcDbEntity
  8
0
  6
Continuous
 62
     3
100
AcDbCircle
 10
197.3006860351
 20
41.8755106805
 30
0.0
 40
1.605599999999999
  0
ARC
  5
4DE
330
217
100
AcDbEntity
  8
0
  6
Continuous
 62
     3
100
AcDbCircle
 10
186.0521602865
 20
43.2881485656
 30
0.0
 40
1.174671382199999
100
AcDbArc
 50
24.5598898511
 51
155.4401101492
  0
ARC
  5
4DF
330
217
100
AcDbEntity
  8
0
  6
Continuous
 62
     3
100
AcDbCircle
 10
186.0521602865
 20
43.2881485656
 30
0.0
 40
1.0174982764
100
AcDbArc
 50
24.5598888409
 51
155.4399710004999
  0
ARC
  5
4E0
330
217
100
AcDbEntity
  8
0
  6
Continuous
 62
     3
100
AcDbCircle
 10
190.6071637977
 20
43.5643666805
 30
0.0
 40
0.8984527626
100
AcDbArc
 50
25.5094558795
 51
180.0
  0
ARC
  5
4E1
330
217
100
AcDbEntity
  8
0
  6
Continuous
 62
     3
100
AcDbCircle
 10
186.0521602865
 20
43.2881485656
 30
0.0
 40
0.8603267062
100
AcDbArc
 50
24.559920353
 51
155.4399710006
  0
ARC
  5
4E2
330
217
100
AcDbEntity
  8
0
  6
Continuous
 62
     3
100
AcDbCircle
 10
186.0521595768
 20
43.03693588989999
 30
0.0
 40
0.7964176826
100
AcDbArc
 50
24.559835
 51
155.4400801095
  0
ARC
  5
4E3
330
217
100
AcDbEntity
  8
0
  6
Continuous
 62
     3
100
AcDbCircle
 10
190.6071637977
 20
43.5643666805
 30
0.0
 40
0.7569977626000001
100
AcDbArc
 50
25.5094847979
 51
179.999842
  0
ARC
  5
4E4
330
217
100
AcDbEntity
  8
0
  6
Continuous
 62
     3
100
AcDbCircle
 10
186.0521602865
 20
43.2881485656
 30
0.0
 40
0.7031531812000001
100
AcDbArc
 50
24.559925709
 51
155.439971
  0
ARC
  5
4E5
330
217
100
AcDbEntity
  8
0
  6
Continuous
 62
     3
100
AcDbCircle
 10
186.0521595768
 20
43.03693588989999
 30
0.0
 40
0.6392453479000001
100
AcDbArc
 50
24.559835
 51
155.4400743316
  0
ARC
  5
4E6
330
217
100
AcDbEntity
  8
0
  6
Continuous
 62
     3
100
AcDbCircle
 10
190.6071637977
 20
43.5643666805
 30
0.0
 40
0.6155427626
100
AcDbArc
 50
25.5094029134
 51
179.999842
  0
ARC
  5
4E7
330
217
100
AcDbEntity
  8
0
  6
Continuous
 62
     3
100
AcDbCircle
 10
193.4337019957
 20
43.9673778545
 30
0.0
 40
0.4954428019
100
AcDbArc
 50
359.999831
 51
180.0000534393
  0
ARC
  5
4E8
330
217
100
AcDbEntity
  8
0
  6
Continuous
 62
     3
100
AcDbCircle
 10
186.0521595768
 20
43.03693588989999
 30
0.0
 40
0.4820729681
100
AcDbArc
 50
24.5599738973
 51
155.440114187
  0
ARC
  5
4E9
330
217
100
AcDbEntity
  8
0
  6
Continuous
 62
     3
100
AcDbCircle
 10
190.6071637977
 20
43.5643666805
 30
0.0
 40
0.4740877626
100
AcDbArc
 50
25.5093812378
 51
179.999842
  0
ARC
  5
4EA
330
217
100
AcDbEntity
  8
0
  6
Continuous
 62
     3
100
AcDbCircle
 10
190.6336970351
 20
43.5278066805
 30
0.0
 40
0.358468
100
AcDbArc
 50
21.76665
 51
188.23317
  0
ARC
  5
4EB
330
217
100
AcDbEntity
  8
0
  6
Continuous
 62
     3
100
AcDbCircle
 10
193.4337019957
 20
43.9673778545
 30
0.0
 40
0.3539885622
100
AcDbArc
 50
0.0
 51
179.9999167943999
  0
ARC
  5
4EC
330
217
100
AcDbEntity
  8
0
  6
Continuous
 62
     3
100
AcDbCircle
 10
186.0521595768
 20
43.03693588989999
 30
0.0
 40
0.324901014
100
AcDbArc
 50
24.559835
 51
155.4399589106
  0
ARC
  5
4ED
330
217
100
AcDbEntity
  8
0
  6
Continuous
 62
     3
100
AcDbCircle
 10
190.6995950351
 20
42.9856036805
 30
0.0
 40
0.28291
100
AcDbArc
 50
25.509422
 51
179.999869
  0
ARC
  5
4EE
330
217
100
AcDbEntity
  8
0
  6
Continuous
 62
     3
100
AcDbCircle
 10
190.6595291315
 20
43.49106268049999
 30
0.0
 40
0.2428440964
100
AcDbArc
 50
25.509640901
 51
180.0
  0
ARC
  5
4EF
330
217
100
AcDbEntity
  8
0
  6
Continuous
 62
     3
100
AcDbCircle
 10
190.6594770351
 20
43.1628316805
 30
0.0
 40
0.242792
100
AcDbArc
 50
25.509422
 51
179.999869
  0
ARC
  5
4F0
330
217
100
AcDbEntity
  8
0
  6
Continuous
 62
     3
100
AcDbCircle
 10
193.4337019957
 20
43.9673778545
 30
0.0
 40
0.212532
100
AcDbArc
 50
0.0
 51
179.999842
  0
ARC
  5
4F1
330
217
100
AcDbEntity
  8
0
  6
Continuous
 62
     3
100
AcDbCircle
 10
190.6144799389
 20
43.3616115886
 30
0.0
 40
0.1977959541
100
AcDbArc
 50
25.5092004662
 51
183.58674
  0
ARC
  5
4F2
330
217
100
AcDbEntity
  8
0
  6
Continuous
 62
     3
100
AcDbCircle
 10
186.3476660499
 20
43.1719788212
 30
0.0
 40
0.1571719541
100
AcDbArc
 50
24.5602610216
 51
26.0590686091
  0
ARC
  5
4F3
330
217
100
AcDbEntity
  8
0
  6
Continuous
 62
     3
100
AcDbCircle
 10
190.6995950351
 20
42.9856036805
 30
0.0
 40
0.141455
100
AcDbArc
 50
25.509422
 51
180.0
  0
ARC
  5
4F4
330
217
100
AcDbEntity
  8
0
  6
Continuous
 62
     3
100
AcDbCircle
 10
193.4337019957
 20
43.9673778545
 30
0.0
 40
0.071077
100
AcDbArc
 50
0.0
 51
179.999842
  0
ARC
  5
4F5
330
217
100
AcDbEntity
  8
0
  6
Continuous
 62
     7
100
AcDbCircle
 10
168.2991220528
 20
35.6877508154
 30
0.0
 40
144.9737454017
100
AcDbArc
 50
119.4890752992
 51
119.7105302256
  0
ARC
  5
4F6
330
217
100
AcDbEntity
  8
0
  6
Continuous
 62
     7
100
AcDbCircle
 10
42.4114914525
 20
40.1166208845
 30
0.0
 40
140.7109984113
100
AcDbArc
 50
59.6979345555
 51
59.9220464312
  0
ARC
  5
4F7
330
217
100
AcDbEntity
  8
0
  6
Continuous
 62
     7
100
AcDbCircle
 10
131.4846032028
 20
143.8308105612
 30
0.0
 40
5.0
100
AcDbArc
 50
150.0
 51
210.0
  0
ARC
  5
4F8
330
217
100
AcDbEntity
  8
0
  6
Continuous
 62
     7
100
AcDbCircle
 10
131.4846032028
 20
137.6308105612
 30
0.0
 40
5.0
100
AcDbArc
 50
150.0
 51
210.0
  0
ARC
  5
4F9
330
217
100
AcDbEntity
  8
0
  6
Continuous
 62
     7
100
AcDbCircle
 10
79.324349165
 20
143.8308105612
 30
0.0
 40
5.0
100
AcDbArc
 50
330.0
 51
30.0
  0
ARC
  5
4FA
330
217
100
AcDbEntity
  8
0
  6
Continuous
 62
     7
100
AcDbCircle
 10
79.324349165
 20
137.6308105612
 30
0.0
 40
5.0
100
AcDbArc
 50
330.0
 51
30.0
  0
ARC
  5
4FB
330
217
100
AcDbEntity
  8
0
  6
Continuous
 62
     7
100
AcDbCircle
 10
86.6044761839
 20
156.2308105612
 30
0.0
 40
0.8
100
AcDbArc
 50
0.0
 51
90.0000446794
  0
ARC
  5
4FC
330
217
100
AcDbEntity
  8
0
  6
Continuous
 62
     7
100
AcDbCircle
 10
124.2044761839
 20
156.2308105612
 30
0.0
 40
0.8
100
AcDbArc
 50
89.99995532059999
 51
180.0
  0
ARC
  5
4FD
330
217
100
AcDbEntity
  8
0
  6
Continuous
 62
     7
100
AcDbCircle
 10
125.4765344732
 20
124.5308105612
 30
0.0
 40
0.5
100
AcDbArc
 50
270.0000023074
 51
351.1193412154
  0
ARC
  5
4FE
330
217
100
AcDbEntity
  8
0
  6
Continuous
 62
     7
100
AcDbCircle
 10
85.3324178945
 20
124.5308105612
 30
0.0
 40
0.5
100
AcDbArc
 50
188.8806587846
 51
269.9999976926
  0
ARC
  5
4FF
330
217
100
AcDbEntity
  8
0
  6
Continuous
 62
     7
100
AcDbCircle
 10
174.6043126415
 20
278.9838736818
 30
0.0
 40
153.4866036454
100
AcDbArc
 50
232.3066240220999
 51
232.6129467848
  0
ARC
  5
500
330
217
100
AcDbEntity
  8
0
  6
Continuous
 62
     7
100
AcDbCircle
 10
204.0977887055
 20
266.4491854444
 30
0.0
 40
153.1398094482
100
AcDbArc
 50
225.3354780107
 51
225.4636266702
  0
ARC
  5
501
330
217
100
AcDbEntity
  8
0
  6
Continuous
 62
     7
100
AcDbCircle
 10
5.767181051599999
 20
263.8742968404
 30
0.0
 40
151.312858799
100
AcDbArc
 50
315.2193310557
 51
315.3474870566
  0
ARC
  5
502
330
217
100
AcDbEntity
  8
0
  6
Continuous
 62
     7
100
AcDbCircle
 10
168.2991220528
 20
294.2738703069
 30
0.0
 40
144.9737454017
100
AcDbArc
 50
240.2894697743999
 51
240.5109247007
  0
ARC
  5
503
330
217
100
AcDbEntity
  8
0
  6
Continuous
 62
     7
100
AcDbCircle
 10
42.4114914525
 20
289.8450002378
 30
0.0
 40
140.7109984113
100
AcDbArc
 50
300.0779535688
 51
300.3020654445
  0
ARC
  5
504
330
217
100
AcDbEntity
  8
DEFAULT_2
  6
HIDDEN
 62
     8
100
AcDbCircle
 10
93.40447618389999
 20
189.2258085595999
 30
0.0
 40
8.0
100
AcDbArc
 50
180.0
 51
231.3178125465
  0
ARC
  5
505
330
217
100
AcDbEntity
  8
DEFAULT_2
  6
HIDDEN
 62
     8
100
AcDbCircle
 10
117.4044761839
 20
189.2258085595999
 30
0.0
 40
8.0
100
AcDbArc
 50
308.6821874535
 51
360.0
  0
ARC
  5
506
330
217
100
AcDbEntity
  8
0
  6
Continuous
 62
     7
100
AcDbCircle
 10
104.9809333288
 20
170.0313579869
 30
0.0
 40
7.9995118924
100
AcDbArc
 50
90.4499945368
 51
180.0039208599
  0
ARC
  5
507
330
217
100
AcDbEntity
  8
0
  6
Continuous
 62
     7
100
AcDbCircle
 10
77.0926663307
 20
171.0288001692
 30
0.0
 40
7.500178703699999
100
AcDbArc
 50
359.9985329044
 51
60.7522555713
  0
ARC
  5
508
330
217
100
AcDbEntity
  8
0
  6
Continuous
 62
     7
100
AcDbCircle
 10
104.9882322751
 20
170.0317718906999
 30
0.0
 40
7.4989369533
100
AcDbArc
 50
359.992655077
 51
180.007344923
  0
ARC
  5
509
330
217
100
AcDbEntity
  8
0
  6
Continuous
 62
     7
100
AcDbCircle
 10
105.0998167349
 20
191.9792410653
 30
0.0
 40
3.7534011919
100
AcDbArc
 50
179.9760419303
 51
227.1885938339
  0
ARC
  5
50A
330
217
100
AcDbEntity
  8
0
  6
Continuous
 62
     7
100
AcDbCircle
 10
105.0904181097
 20
191.9739921743
 30
0.0
 40
3.743147815899999
100
AcDbArc
 50
227.2395309867
 51
269.1450554413
  0
ARC
  5
50B
330
217
100
AcDbEntity
  8
DEFAULT_2
  6
HIDDEN
 62
     8
100
AcDbCircle
 10
108.4044761839
 20
193.8358530684
 30
0.0
 40
3.0
100
AcDbArc
 50
0.0
 51
15.0000001527
  0
ARC
  5
50C
330
217
100
AcDbEntity
  8
DEFAULT_2
  6
HIDDEN
 62
     8
100
AcDbCircle
 10
102.4044761839
 20
193.8358530684
 30
0.0
 40
3.0
100
AcDbArc
 50
164.9999998473
 51
180.0
  0
ARC
  5
50D
330
217
100
AcDbEntity
  8
DEFAULT_2
  6
HIDDEN
 62
     8
100
AcDbCircle
 10
89.65447618389999
 20
174.5308105612
 30
0.0
 40
1.5
100
AcDbArc
 50
146.4426902381
 51
270.0
  0
ARC
  5
50E
330
217
100
AcDbEntity
  8
DEFAULT_2
  6
HIDDEN
 62
     8
100
AcDbCircle
 10
121.1544761839
 20
174.5308105612
 30
0.0
 40
1.5
100
AcDbArc
 50
270.0
 51
33.5573097619
  0
ARC
  5
50F
330
217
100
AcDbEntity
  8
0
  6
Continuous
 62
     7
100
AcDbCircle
 10
110.1907727326
 20
210.0808105612
 30
0.0
 40
1.199999999999999
100
AcDbArc
 50
271.3355210907
 51
360.0
  0
ARC
  5
510
330
217
100
AcDbEntity
  8
0
  6
Continuous
 62
     7
100
AcDbCircle
 10
126.9854812033
 20
213.6808105612
 30
0.0
 40
1.199999999999999
100
AcDbArc
 50
2.8682371247
 51
90.0
  0
ARC
  5
511
330
217
100
AcDbEntity
  8
0
  6
Continuous
 62
     7
100
AcDbCircle
 10
83.82347116449999
 20
213.6808105612
 30
0.0
 40
1.199999999999999
100
AcDbArc
 50
90.0
 51
177.1317628753
  0
ARC
  5
512
330
217
100
AcDbEntity
  8
DEFAULT_2
  6
HIDDEN
 62
     8
100
AcDbCircle
 10
87.60447618389999
 20
214.0808105612
 30
0.0
 40
0.8
100
AcDbArc
 50
0.0
 51
90.0
  0
ARC
  5
513
330
217
100
AcDbEntity
  8
DEFAULT_2
  6
HIDDEN
 62
     8
100
AcDbCircle
 10
123.2044761839
 20
214.0808105612
 30
0.0
 40
0.8
100
AcDbArc
 50
90.0
 51
180.0
  0
ARC
  5
514
330
217
100
AcDbEntity
  8
DEFAULT_2
  6
HIDDEN
 62
     8
100
AcDbCircle
 10
86.00447618389999
 20
199.8983749959
 30
0.0
 40
0.6
100
AcDbArc
 50
120.0000086647
 51
180.0000001093
  0
ARC
  5
515
330
217
100
AcDbEntity
  8
DEFAULT_2
  6
HIDDEN
 62
     8
100
AcDbCircle
 10
124.8044761839
 20
199.8983749959
 30
0.0
 40
0.6
100
AcDbArc
 50
359.9999998907
 51
59.9999913353
  0
ARC
  5
516
330
217
100
AcDbEntity
  8
DEFAULT_2
  6
HIDDEN
 62
     8
100
AcDbCircle
 10
110.1402324138
 20
196.6308105611999
 30
0.0
 40
0.6
100
AcDbArc
 50
15.0000004411
 51
90.00000091049999
  0
ARC
  5
517
330
217
100
AcDbEntity
  8
DEFAULT_2
  6
HIDDEN
 62
     8
100
AcDbCircle
 10
100.668719954
 20
196.6308105611999
 30
0.0
 40
0.6
100
AcDbArc
 50
89.9999990895
 51
164.9999995589
  0
ARC
  5
518
330
217
100
AcDbEntity
  8
0
  6
Continuous
 62
     7
100
AcDbCircle
 10
129.9044761839
 20
183.3808105612
 30
0.0
 40
0.6
100
AcDbArc
 50
180.0
 51
222.1953233946
  0
ARC
  5
519
330
217
100
AcDbEntity
  8
0
  6
Continuous
 62
     7
100
AcDbCircle
 10
80.90447618389999
 20
183.3808105612
 30
0.0
 40
0.6
100
AcDbArc
 50
317.8046766054
 51
360.0
  0
ARC
  5
51A
330
217
100
AcDbEntity
  8
DEFAULT_2
  6
HIDDEN
 62
     8
100
AcDbCircle
 10
88.0044761839
 20
202.2077760726
 30
0.0
 40
0.4
100
AcDbArc
 50
299.9999976301
 51
360.0
  0
ARC
  5
51B
330
217
100
AcDbEntity
  8
DEFAULT_2
  6
HIDDEN
 62
     8
100
AcDbCircle
 10
122.8044761839
 20
202.2077760726
 30
0.0
 40
0.4
100
AcDbArc
 50
180.0
 51
240.0000023699
  0
ARC
  5
51C
330
217
100
AcDbEntity
  8
DEFAULT_2
  6
HIDDEN
 62
     8
100
AcDbCircle
 10
101.1044761839
 20
196.9308105612
 30
0.0
 40
0.3
100
AcDbArc
 50
0.0
 51
90.00000073690001
  0
ARC
  5
51D
330
217
100
AcDbEntity
  8
0
  6
Continuous
 62
     7
100
AcDbCircle
 10
710.1744504683
 20
139.6292622738
 30
0.0
 40
625.5358402713
100
AcDbArc
 50
177.8491670098
 51
177.9868789539
  0
ARC
  5
51E
330
217
100
AcDbEntity
  8
0
  6
Continuous
 62
     7
100
AcDbCircle
 10
710.1744504775
 20
190.3323585998
 30
0.0
 40
625.5358402719999
100
AcDbArc
 50
182.0131210233
 51
182.1508329674
  0
SPLINE
  5
51F
330
217
100
AcDbEntity
  8
DEFAULT_2
  6
HIDDEN
 62
     8
100
AcDbSpline
210
0.0
220
0.0
230
1.0
 70
     8
 71
     3
 72
    20
 73
    16
 74
    14
 42
0.0000000001
 43
0.0000000001
 44
0.0000000001
 12
-1.0
 22
0.0
 32
0.0
 13
1.0
 23
0.0
 33
0.0
 40
0.0
 40
0.0
 40
0.0
 40
0.0
 40
0.1465015450231923
 40
0.5742969421219144
 40
1.259200594056845
 40
2.161517951061598
 40
3.228853516119759
 40
4.399203320949782
 40
5.604570123449791
 40
6.774919928279814
 40
7.842255493337976
 40
8.744572850342729
 40
9.429476502277632
 40
9.857271899376382
 40
10.00377344449873
 40
10.00377344449873
 40
10.00377344449873
 40
10.00377344449873
 10
131.9012069445999
 20
170.9808105612
 30
0.0
 10
131.8523730962589
 20
170.9808105612
 30
0.0
 10
131.9262748253315
 20
171.2864147817806
 30
0.0
 10
131.8300354873297
 20
171.5984312158776
 30
0.0
 10
131.8600842630816
 20
172.3281528586982
 30
0.0
 10
131.8303785213461
 20
173.1892271774071
 30
0.0
 10
131.8282648508005
 20
174.2441364301291
 30
0.0
 10
131.8221583143412
 20
175.3890774965104
 30
0.0
 10
131.8221583143411
 20
176.5725436257895
 30
0.0
 10
131.8282648508007
 20
177.7174846921711
 30
0.0
 10
131.8303785213451
 20
178.7723939448921
 30
0.0
 10
131.8600842630843
 20
179.6334682636038
 30
0.0
 10
131.8300354873233
 20
180.3631899064176
 30
0.0
 10
131.9262748253496
 20
180.6752063405517
 30
0.0
 10
131.8523730962258
 20
180.9808105612
 30
0.0
 10
131.9012069445999
 20
180.9808105612
 30
0.0
 11
131.9012069445999
 21
170.9808105612
 31
0.0
 11
131.8824119093
 21
171.126101474
 31
0.0
 11
131.864709173
 21
171.5535304329
 31
0.0
 11
131.8491275546
 21
172.2382568203
 31
0.0
 11
131.836572601
 21
173.1404868275
 31
0.0
 11
131.8277739606
 21
174.2077861259
 31
0.0
 11
131.8232429782
 21
175.3781271599
 31
0.0
 11
131.8232429782
 21
176.5834939624
 31
0.0
 11
131.8277739606
 21
177.7538349964
 31
0.0
 11
131.836572601
 21
178.8211342948
 31
0.0
 11
131.8491275546
 21
179.723364302
 31
0.0
 11
131.864709173
 21
180.4080906893999
 31
0.0
 11
131.8824119093
 21
180.8355196483
 31
0.0
 11
131.9012069445999
 21
180.9808105612
 31
0.0
  0
SPLINE
  5
520
330
217
100
AcDbEntity
  8
DEFAULT_2
  6
HIDDEN
 62
     8
100
AcDbSpline
210
0.0
220
0.0
230
1.0
 70
     8
 71
     3
 72
    16
 73
    12
 74
    10
 42
0.0000000001
 43
0.0000000001
 44
0.0000000001
 12
-0.9996876652944784
 22
0.0249914356945427
 32
0.0
 13
0.9996876652944784
 23
0.0249914356945427
 33
0.0
 40
0.0
 40
0.0
 40
0.0
 40
0.0
 40
0.0605016505542968
 40
0.2342140799364905
 40
0.5002816297574335
 40
0.8266387852620209
 40
1.173935140562037
 40
1.500292296166639
 40
1.766359845887603
 40
1.940072275269768
 40
2.000573925824093
 40
2.000573925824093
 40
2.000573925824093
 40
2.000573925824093
 10
131.9007492906
 20
174.9808162259
 30
0.0
 10
131.8805883726703
 20
174.9813202336031
 30
0.0
 10
131.91730160804
 20
175.1055960994968
 30
0.0
 10
131.8766096753109
 20
175.229959413588
 30
0.0
 10
131.8923275466323
 20
175.5071108028829
 30
0.0
 10
131.8841872877543
 20
175.8117437604641
 30
0.0
 10
131.8841872877548
 20
176.1498773618696
 30
0.0
 10
131.8923275466321
 20
176.4545103194491
 30
0.0
 10
131.8766096753175
 20
176.7316617087387
 30
0.0
 10
131.9173016080401
 20
176.856025022803
 30
0.0
 10
131.8805883726703
 20
176.9803008886969
 30
0.0
 10
131.9007492906
 20
176.9808048964
 30
0.0
 11
131.9007492906
 21
174.9808162259
 31
0.0
 11
131.8958347257
 21
175.0411179404
 31
0.0
 11
131.8911104757
 21
175.214766118
 31
0.0
 11
131.8876040088
 21
175.4808105612
 31
0.0
 11
131.8857382568
 21
175.8071623834999
 31
0.0
 11
131.8857382568
 21
176.1544587388
 31
0.0
 11
131.8876040088
 21
176.4808105612
 31
0.0
 11
131.8911104757
 21
176.7468550043
 31
0.0
 11
131.8958347257
 21
176.9205031819
 31
0.0
 11
131.9007492906
 21
176.9808048964
 31
0.0
  0
SPLINE
  5
521
330
217
100
AcDbEntity
  8
DEFAULT_2
  6
HIDDEN
 62
     8
100
AcDbSpline
210
0.0
220
0.0
230
1.0
 70
     8
 71
     3
 72
    16
 73
    12
 74
    10
 42
0.0000000001
 43
0.0000000001
 44
0.0000000001
 12
1.0
 22
0.0
 32
0.0
 13
-1.0
 23
0.0
 33
0.0
 40
0.0
 40
0.0
 40
0.0
 40
0.0
 40
0.0605461866921167
 40
0.2342586160743104
 40
0.5003261658952534
 40
0.8266833213998408
 40
1.173979676699857
 40
1.500336832304459
 40
1.766404382025423
 40
1.940116811407588
 40
2.000662998199326
 40
2.000662998199326
 40
2.000662998199326
 40
2.000662998199326
 10
131.9012069445999
 20
174.9808105612
 30
0.0
 10
131.9213890068307
 20
174.9808105612
 30
0.0
 10
131.8857268772333
 20
175.1062196827426
 30
0.0
 10
131.9254452859057
 20
175.2295901931908
 30
0.0
 10
131.9102248189988
 20
175.5072578899756
 30
0.0
 10
131.9181940073649
 20
175.8116869453568
 30
0.0
 10
131.9181940073648
 20
176.1499341769764
 30
0.0
 10
131.9102248189981
 20
176.4543632323585
 30
0.0
 10
131.9254452859015
 20
176.7320309291304
 30
0.0
 10
131.8857268772214
 20
176.8554014395909
 30
0.0
 10
131.9213890068638
 20
176.9808105612
 30
0.0
 10
131.9012069445999
 20
176.9808105612
 30
0.0
 11
131.9012069445999
 21
174.9808105612
 31
0.0
 11
131.9065791636
 21
175.0411179404
 31
0.0
 11
131.9113034136
 21
175.214766118
 31
0.0
 11
131.9148098805
 21
175.4808105612
 31
0.0
 11
131.9166756325
 21
175.8071623834999
 31
0.0
 11
131.9166756325
 21
176.1544587388
 31
0.0
 11
131.9148098805
 21
176.4808105612
 31
0.0
 11
131.9113034136
 21
176.7468550043
 31
0.0
 11
131.9065791636
 21
176.9205031819
 31
0.0
 11
131.9012069445999
 21
176.9808105612
 31
0.0
  0
SPLINE
  5
522
330
217
100
AcDbEntity
  8
0
  6
Continuous
 62
     7
100
AcDbSpline
210
0.0
220
0.0
230
1.0
 70
     8
 71
     3
 72
    14
 73
    10
 74
     8
 42
0.0000000001
 43
0.0000000001
 44
0.0000000001
 12
0.8556971484226012
 22
-0.5174769465217065
 32
0.0
 13
0.0
 23
-1.0
 33
0.0
 40
0.0
 40
0.0
 40
0.0
 40
0.0
 40
1.153302168704811
 40
2.355630438405213
 40
3.568901193761726
 40
4.77757366478853
 40
5.988544563619267
 40
7.155299253764802
 40
8.235456389738052
 40
8.235456389738052
 40
8.235456389738052
 40
8.235456389738052
 10
81.16890521470001
 20
177.9079397193
 30
0.0
 10
81.49786434037677
 20
177.7090039577406
 30
0.0
 10
82.14087701246906
 20
177.2526517514067
 30
0.0
 10
83.0014305761451
 20
176.4249651185558
 30
0.0
 10
83.738820789083
 20
175.4621033837367
 30
0.0
 10
84.32438789823924
 20
174.3969461913694
 30
0.0
 10
84.73871101483673
 20
173.270716451219
 30
0.0
 10
84.97464849918136
 20
172.1385512620618
 30
0.0
 10
85.02468732210001
 20
171.3886605005577
 30
0.0
 10
85.02468732210001
 20
171.0286081219
 30
0.0
 11
81.16890521470001
 21
177.9079397193
 31
0.0
 11
82.1095144296
 21
177.2405865915
 31
0.0
 11
82.97625073479999
 21
176.4073030591
 31
0.0
 11
83.71406213669999
 21
175.4441518451
 31
0.0
 11
84.2964510926
 21
174.3850426693
 31
0.0
 11
84.7146505155
 21
173.2485745613
 31
0.0
 11
84.9527107765
 21
172.1063645022
 31
0.0
 11
85.02468732210001
 21
171.0286081219
 31
0.0
  0
SPLINE
  5
523
330
217
100
AcDbEntity
  8
0
  6
Continuous
 62
     7
100
AcDbSpline
210
0.0
220
0.0
230
1.0
 70
     8
 71
     3
 72
     8
 73
     4
 74
     2
 42
0.0000000001
 43
0.0000000001
 44
0.0000000001
 12
1.0
 22
0.0
 32
0.0
 13
0.570016358434347
 23
-0.8216333434794659
 33
0.0
 40
0.0
 40
0.0
 40
0.0
 40
0.0
 40
0.0410017942248598
 40
0.0410017942248598
 40
0.0410017942248598
 40
0.0410017942248598
 10
97.880165603
 20
214.8808105612
 30
0.0
 10
97.8938328677416
 20
214.8808105612
 30
0.0
 10
97.90300365742224
 20
214.8647813763259
 30
0.0
 10
97.91079422190001
 20
214.8535518959
 30
0.0
 11
97.880165603
 21
214.8808105612
 31
0.0
 11
97.91079422190001
 21
214.8535518959
 31
0.0
  0
SPLINE
  5
524
330
217
100
AcDbEntity
  8
0
  6
Continuous
 62
     7
100
AcDbSpline
210
0.0
220
0.0
230
1.0
 70
     8
 71
     3
 72
    12
 73
     8
 74
     6
 42
0.0000000001
 43
0.0000000001
 44
0.0000000001
 12
0.570016359041528
 22
-0.8216333430582277
 32
0.0
 13
0.7047660688201358
 23
-0.7094397706922071
 33
0.0
 40
0.0
 40
0.0
 40
0.0
 40
0.0
 40
0.1151114825893648
 40
0.2943576180732638
 40
0.522259398188225
 40
0.7917333549969669
 40
1.096245511737574
 40
1.096245511737574
 40
1.096245511737574
 40
1.096245511737574
 10
97.91079422190001
 20
214.8535518959
 30
0.0
 10
97.9326660312965
 20
214.8220254184786
 30
0.0
 10
98.01330010347776
 20
214.7624384784565
 30
0.0
 10
98.13110068173248
 20
214.6349225548057
 30
0.0
 10
98.29343564514042
 20
214.4779520833808
 30
0.0
 10
98.48160163869062
 20
214.2882253946666
 30
0.0
 10
98.61680839032866
 20
214.1528215727503
 30
0.0
 10
98.6883450022
 20
214.0808105612
 30
0.0
 11
97.91079422190001
 21
214.8535518959
 31
0.0
 11
97.99355402110002
 21
214.7735427148
 31
0.0
 11
98.12125914540001
 21
214.6477628344
 31
0.0
 11
98.28291174500002
 21
214.4871152125
 31
0.0
 11
98.4734941345
 21
214.2966038842
 31
0.0
 11
98.6883450022
 21
214.0808105612
 31
0.0
  0
LINE
  5
525
330
217
100
AcDbEntity
  8
0
  6
Continuous
 62
     7
100
AcDbLine
 10
112.9327205563
 20
168.0815359946
 30
0.0
 11
112.967325858
 21
166.8558105612
 31
0.0
  0
LINE
  5
526
330
217
100
AcDbEntity
  8
0
  6
Continuous
 62
     7
100
AcDbLine
 10
112.9327205563
 20
161.8800851277
 30
0.0
 11
112.967325858
 21
163.1058105612
 31
0.0
  0
SPLINE
  5
527
330
217
100
AcDbEntity
  8
0
  6
Continuous
 62
     7
100
AcDbSpline
210
0.0
220
0.0
230
1.0
 70
     8
 71
     3
 72
    12
 73
     8
 74
     6
 42
0.0000000001
 43
0.0000000001
 44
0.0000000001
 12
0.0
 22
-1.0
 32
0.0
 13
0.9997325160170555
 23
-0.023127827788351
 33
0.0
 40
0.0
 40
0.0
 40
0.0
 40
0.0
 40
0.3656007251911119
 40
0.7422413581933452
 40
1.110990048728704
 40
1.489426880799811
 40
1.84521469075594
 40
1.84521469075594
 40
1.84521469075594
 40
1.84521469075594
 10
98.88705067389999
 20
210.0808105612
 30
0.0
 10
98.88705067389999
 20
209.958943652803
 30
0.0
 10
98.92504752095417
 20
209.7099230887291
 30
0.0
 10
99.09251108153881
 20
209.3729588809895
 30
0.0
 10
99.35829380830391
 20
209.1004325362598
 30
0.0
 10
99.68922689128204
 20
208.9265854926048
 30
0.0
 10
99.93458653426145
 20
208.8838669375993
 30
0.0
 10
100.0531507484
 20
208.8811240712
 30
0.0
 11
98.88705067389999
 21
210.0808105612
 31
0.0
 11
98.9424079583
 21
209.7194250865
 31
0.0
 11
99.1100228548
 21
209.3821367634
 31
0.0
 11
99.36756567540001
 21
209.1182290289
 31
0.0
 11
99.70268122510001
 21
208.9424109291
 31
0.0
 11
100.0531507484
 21
208.8811240712
 31
0.0
  0
SPLINE
  5
528
330
217
100
AcDbEntity
  8
0
  6
Continuous
 62
     7
100
AcDbSpline
210
0.0
220
0.0
230
1.0
 70
     8
 71
     3
 72
    25
 73
    21
 74
    19
 42
0.0000000001
 43
0.0000000001
 44
0.0000000001
 12
0.9999998196516076
 22
-0.000600580346034
 32
0.0
 13
0.0007842568131163
 23
-0.9999996924705779
 33
0.0
 40
0.0
 40
0.0
 40
0.0
 40
0.0
 40
0.5027018576126878
 40
1.006200207343268
 40
1.514265471021881
 40
2.291350013369688
 40
3.08014934639716
 40
3.871940923558956
 40
4.66067238817125
 40
5.442381249186084
 40
6.22021121724237
 40
6.999176189859071
 40
7.785964438725999
 40
8.585686459628012
 40
9.393779923276603
 40
10.20321828664956
 40
11.00420602847296
 40
11.52945894326264
 40
12.05056319178551
 40
12.57192480518642
 40
12.57192480518642
 40
12.57192480518642
 40
12.57192480518642
 10
104.9175493472
 20
178.0308105611999
 30
0.0
 10
105.0851166028504
 20
178.0307099235814
 30
0.0
 10
105.4206027654391
 20
178.020229801571
 30
0.0
 10
105.9234726660658
 20
177.972974508854
 30
0.0
 10
106.5126498455598
 20
177.8791499692328
 30
0.0
 10
107.185471696464
 20
177.7155389065488
 30
0.0
 10
107.9290727866558
 20
177.4573750660861
 30
0.0
 10
108.6466878479194
 20
177.1244471671156
 30
0.0
 10
109.3264175520997
 20
176.7245243792327
 30
0.0
 10
109.9599950951992
 20
176.2627172075543
 30
0.0
 10
110.5430393493397
 20
175.7435227033144
 30
0.0
 10
111.074791560258
 20
175.1695676448462
 30
0.0
 10
111.5517309051021
 20
174.5400422653204
 30
0.0
 10
111.9691280241418
 20
173.858159357087
 30
0.0
 10
112.3202357423238
 20
173.1313659975969
 30
0.0
 10
112.5945992060671
 20
172.3718615924281
 30
0.0
 10
112.7696071814265
 20
171.6805524952628
 30
0.0
 10
112.8704657578856
 20
171.0726491322946
 30
0.0
 10
112.921301329683
 20
170.5521811473915
 30
0.0
 10
112.9325842625009
 20
170.2045977122223
 30
0.0
 10
112.9327205563
 20
170.0308105612
 30
0.0
 11
104.9175493472
 21
178.0308105611999
 31
0.0
 11
105.4200030271
 21
178.015016347
 31
0.0
 11
105.9212818227
 21
177.9677918061
 31
0.0
 11
106.4230347114
 21
177.8879522743
 31
0.0
 11
107.17819283
 21
177.7046585159
 31
0.0
 11
107.9232012564
 21
177.4454928693
 31
0.0
 11
108.6416136505
 21
177.1126001934
 31
0.0
 11
109.321330601
 21
176.7124974685
 31
0.0
 11
109.9530160855
 21
176.2520170758
 31
0.0
 11
110.5340407086
 21
175.7348808785
 31
0.0
 11
111.0632226904
 21
175.1632578745
 31
0.0
 11
111.5384640866
 21
174.5362161184
 31
0.0
 11
111.956110663
 21
173.8542141771
 31
0.0
 11
112.3071991903
 21
173.1263736094
 31
0.0
 11
112.5827431928
 21
172.3652783678
 31
0.0
 11
112.7789722046
 21
171.5886989852
 31
0.0
 11
112.8648467351
 21
171.0705135073
 31
0.0
 11
112.9156656274
 21
170.5518931471
 31
0.0
 11
112.9327205563
 21
170.0308105612
 31
0.0
  0
SPLINE
  5
529
330
217
100
AcDbEntity
  8
0
  6
Continuous
 62
     7
100
AcDbSpline
210
0.0
220
0.0
230
1.0
 70
     8
 71
     3
 72
    16
 73
    12
 74
    10
 42
0.0000000001
 43
0.0000000001
 44
0.0000000001
 12
-0.0007912435733161
 22
-0.9999996869667548
 32
0.0
 13
-0.9999999999997205
 23
-0.0000007473274778
 33
0.0
 40
0.0
 40
0.0
 40
0.0
 40
0.0
 40
0.6691088636194874
 40
1.34286281990438
 40
2.01362781355447
 40
2.669473995637662
 40
3.31255515685471
 40
3.958243555795442
 40
4.610638612018774
 40
5.256174258748457
 40
5.887191065469209
 40
5.887191065469209
 40
5.887191065469209
 40
5.887191065469209
 10
108.7915204751
 20
191.9808105612
 30
0.0
 10
108.7913439990706
 20
191.7577743431446
 30
0.0
 10
108.7507658901923
 20
191.3091554525434
 30
0.0
 10
108.5707897082565
 20
190.6589209495014
 30
0.0
 10
108.2795490327473
 20
190.0550802003532
 30
0.0
 10
107.8927040532271
 20
189.5204513947083
 30
0.0
 10
107.4257176864834
 20
189.0663437155154
 30
0.0
 10
106.8890331167676
 20
188.6992281512723
 30
0.0
 10
106.2963757523521
 20
188.4294248966406
 30
0.0
 10
105.6711618661607
 20
188.2667875525821
 30
0.0
 10
105.2447883538735
 20
188.230810718492
 30
0.0
 10
105.0344494183
 20
188.2308105613
 30
0.0
 11
108.7915204751
 21
191.9808105612
 31
0.0
 11
108.731181991
 21
191.3144278343
 31
0.0
 11
108.5515430244
 21
190.6650633486
 31
0.0
 11
108.2601462461
 21
190.0608997993
 31
0.0
 11
107.8757111903
 21
189.5295393732
 31
0.0
 11
107.4146851233
 21
189.0811998306
 31
0.0
 11
106.8817501739
 21
188.7166537454
 31
0.0
 11
106.2879889995
 21
188.4463447053
 31
0.0
 11
105.6632300804
 21
188.2838868209
 31
0.0
 11
105.0344494183
 21
188.2308105613
 31
0.0
  0
LINE
  5
52A
330
217
100
AcDbEntity
  8
0
  6
Continuous
 62
     7
100
AcDbLine
 10
113.170324281
 20
157.2903108441
 30
0.0
 11
113.4351624241
 21
157.0308105612
 31
0.0
  0
LINE
  5
52B
330
217
100
AcDbEntity
  8
0
  6
Continuous
 62
     7
100
AcDbLine
 10
85.02468732210001
 20
157.5308105612
 30
0.0
 11
85.03490883499999
 21
157.0308105612
 31
0.0
  0
SPLINE
  5
52C
330
217
100
AcDbEntity
  8
0
  6
Continuous
 62
     7
100
AcDbSpline
210
0.0
220
0.0
230
1.0
 70
     8
 71
     3
 72
     8
 73
     4
 74
     2
 42
0.0000000001
 43
0.0000000001
 44
0.0000000001
 12
-0.9993577989321604
 22
0.0358328021994841
 32
0.0
 13
0.0245068853358886
 23
0.9996996611838646
 33
0.0
 40
0.0
 40
0.0
 40
0.0
 40
0.0
 40
0.1276194620637321
 40
0.1276194620637321
 40
0.1276194620637321
 40
0.1276194620637321
 10
136.8991466481
 20
170.4808113481
 30
0.0
 10
136.8566341465303
 20
170.4823356690803
 30
0.0
 10
136.8646622868922
 20
170.5614442414714
 30
0.0
 10
136.8657048054
 20
170.6039712858
 30
0.0
 11
136.8991466481
 21
170.4808113481
 31
0.0
 11
136.8657048054
 21
170.6039712858
 31
0.0
  0
SPLINE
  5
52D
330
217
100
AcDbEntity
  8
0
  6
Continuous
 62
     7
100
AcDbSpline
210
0.0
220
0.0
230
1.0
 70
     8
 71
     3
 72
    19
 73
    15
 74
    13
 42
0.0000000001
 43
0.0000000001
 44
0.0000000001
 12
0.024506885362399
 22
0.9996996611832145
 32
0.0
 13
-0.0240320886564526
 23
0.9997111876511176
 33
0.0
 40
0.0
 40
0.0
 40
0.0
 40
0.0
 40
0.4013446356002543
 40
1.064743455391981
 40
1.932398715035584
 40
2.98688912813262
 40
4.174776584058367
 40
5.405914370541879
 40
6.637556322509375
 40
7.826184586906131
 40
8.879908036630968
 40
9.746776505918624
 40
10.40932078177935
 40
10.80801739826918
 40
10.80801739826918
 40
10.80801739826918
 40
10.80801739826918
 10
136.8657048054
 20
170.6039712858
 30
0.0
 10
136.8689833743918
 20
170.737712651209
 30
0.0
 10
136.7530520165983
 20
171.0824261260637
 30
0.0
 10
136.6923824506561
 20
171.7226928042212
 30
0.0
 10
136.5752359116233
 20
172.5772092656537
 30
0.0
 10
136.4874793381896
 20
173.6103611736165
 30
0.0
 10
136.421898862778
 20
174.7665461359108
 30
0.0
 10
136.39988200656
 20
175.9835380350948
 30
0.0
 10
136.4221005744988
 20
177.2007737792683
 30
0.0
 10
136.4879040003816
 20
178.3571056120836
 30
0.0
 10
136.5758222274361
 20
179.3899726472151
 30
0.0
 10
136.6930249399008
 20
180.2436680890777
 30
0.0
 10
136.7536310599613
 20
180.8825145376536
 30
0.0
 10
136.8691708187781
 20
181.2260672225721
 30
0.0
 10
136.8659769813
 20
181.3589277119
 30
0.0
 11
136.8657048054
 21
170.6039712858
 31
0.0
 11
136.7933072966
 21
170.9987321213
 31
0.0
 11
136.6947962305
 21
171.6547759948
 31
0.0
 11
136.5903949401
 21
172.5161272705
 31
0.0
 11
136.495873517
 21
173.5663728284
 31
0.0
 11
136.430210706
 21
174.7524440755
 31
0.0
 11
136.4073416574
 21
175.9833694412
 31
0.0
 11
136.4304205033
 21
177.2147951453
 31
0.0
 11
136.4963409606
 21
178.4015940517
 31
0.0
 11
136.5909891887
 21
179.4510581156
 31
0.0
 11
136.6954466464
 21
180.3116100214
 31
0.0
 11
136.7939561014
 21
180.9667900003
 31
0.0
 11
136.8659769813
 21
181.3589277119
 31
0.0
  0
SPLINE
  5
52E
330
217
100
AcDbEntity
  8
0
  6
Continuous
 62
     7
100
AcDbSpline
210
0.0
220
0.0
230
1.0
 70
     8
 71
     3
 72
     8
 73
     4
 74
     2
 42
0.0000000001
 43
0.0000000001
 44
0.0000000001
 12
-0.0240320885387563
 22
0.9997111876539468
 32
0.0
 13
0.999344505086921
 23
0.0362016595279433
 33
0.0
 40
0.0
 40
0.0
 40
0.0
 40
0.0
 40
0.1263154928472491
 40
0.1263154928472491
 40
0.1263154928472491
 40
0.1263154928472491
 10
136.8659769813
 20
181.3589277119
 30
0.0
 10
136.864965106264
 20
181.4010207156911
 30
0.0
 10
136.8570721869386
 20
181.4792852263782
 30
0.0
 10
136.8991497515
 20
181.4808095032
 30
0.0
 11
136.8659769813
 21
181.3589277119
 31
0.0
 11
136.8991497515
 21
181.4808095032
 31
0.0
  0
SPLINE
  5
52F
330
217
100
AcDbEntity
  8
0
  6
Continuous
 62
     7
100
AcDbSpline
210
0.0
220
0.0
230
1.0
 70
     8
 71
     3
 72
    16
 73
    12
 74
    10
 42
0.0000000001
 43
0.0000000001
 44
0.0000000001
 12
0.999999999999795
 22
-0.0000006403544173
 32
0.0
 13
-0.0007912435676917
 23
-0.9999996869667592
 33
0.0
 40
0.0
 40
0.0
 40
0.0
 40
0.0
 40
0.6326183751895206
 40
1.28000361155791
 40
1.933349830772854
 40
2.580367992278358
 40
3.224116853092775
 40
3.881613131984895
 40
4.551879912763014
 40
5.222912132362985
 40
5.884214639435916
 40
5.884214639435916
 40
5.884214639435916
 40
5.884214639435916
 10
105.0403516041
 20
195.7308105612
 30
0.0
 10
105.2512243958298
 20
195.7308104261666
 30
0.0
 10
105.6787562570202
 20
195.6946433450152
 30
0.0
 10
106.3052895385381
 20
195.5311178317593
 30
0.0
 10
106.8988326204936
 20
195.2598729404631
 30
0.0
 10
107.4355805174547
 20
194.891051471217
 30
0.0
 10
107.9021914241792
 20
194.434780043933
 30
0.0
 10
108.287535544523
 20
193.8982729182148
 30
0.0
 10
108.5761037573883
 20
193.2937278572399
 30
0.0
 10
108.752596997759
 20
192.6463834808126
 30
0.0
 10
108.7916948922183
 20
192.2012446612211
 30
0.0
 10
108.7915204751
 20
191.9808105612
 30
0.0
 11
105.0403516041
 21
195.7308105612
 31
0.0
 11
105.670715489
 21
195.6774497025
 31
0.0
 11
106.2971283762
 21
195.5140038735
 31
0.0
 11
106.8913582464
 21
195.2424304147
 31
0.0
 11
107.4246166515
 21
194.8760044676
 31
0.0
 11
107.8848717852
 21
194.4259180229
 31
0.0
 11
108.2684068748
 21
193.8918747739
 31
0.0
 11
108.5571564098
 21
193.2869935761
 31
0.0
 11
108.7335866126
 21
192.6395705125
 31
0.0
 11
108.7915204751
 21
191.9808105612
 31
0.0
  0
SPLINE
  5
530
330
217
100
AcDbEntity
  8
0
  6
Continuous
 62
     7
100
AcDbSpline
210
0.0
220
0.0
230
1.0
 70
     8
 71
     3
 72
    14
 73
    10
 74
     8
 42
0.0000000001
 43
0.0000000001
 44
0.0000000001
 12
-0.9999119546338686
 22
-0.0132696262297016
 32
0.0
 13
0.0
 23
-1.0
 33
0.0
 40
0.0
 40
0.0
 40
0.0
 40
0.0
 40
0.3966151478276327
 40
1.305951911575317
 40
2.219013184720151
 40
3.108567309569597
 40
4.008639886902411
 40
4.924083810736965
 40
5.823110028595875
 40
5.823110028595875
 40
5.823110028595875
 40
5.823110028595875
 10
105.04047248
 20
195.7304521626
 30
0.0
 10
104.9082790707661
 20
195.7286978510104
 30
0.0
 10
104.4731974358037
 20
195.699976018052
 30
0.0
 10
103.7470676996741
 20
195.521720043587
 30
0.0
 10
102.9395834497213
 20
195.0958352386346
 30
0.0
 10
102.2599873430397
 20
194.491480581824
 30
0.0
 10
101.742710058542
 20
193.7421632895263
 30
0.0
 10
101.4193058909401
 20
192.8877726107739
 30
0.0
 10
101.3463639761
 20
192.2804859671529
 30
0.0
 10
101.3463639761
 20
191.9808105612
 30
0.0
 11
105.04047248
 21
195.7304521626
 31
0.0
 11
104.6447254232
 21
195.7042254106
 31
0.0
 11
103.7616630416
 21
195.4872134752
 31
0.0
 11
102.9539963958
 21
195.0613549567
 31
0.0
 11
102.2892623172
 21
194.4702245601
 31
0.0
 11
101.7778167315
 21
193.7295802073
 31
0.0
 11
101.4538082787
 21
192.8733932533
 31
0.0
 11
101.3463639761
 21
191.9808105612
 31
0.0
  0
SPLINE
  5
531
330
217
100
AcDbEntity
  8
0
  6
Continuous
 62
     7
100
AcDbSpline
210
0.0
220
0.0
230
1.0
 70
     8
 71
     3
 72
    12
 73
     8
 74
     6
 42
0.0000000001
 43
0.0000000001
 44
0.0000000001
 12
-0.8712792787039479
 22
0.4907875492523507
 32
0.0
 13
-1.0
 23
0.0
 33
0.0
 40
0.0
 40
0.0
 40
0.0
 40
0.0
 40
0.2984567929341541
 40
0.563975127657619
 40
0.8024764653673383
 40
1.022809199246715
 40
1.237845230708404
 40
1.237845230708404
 40
1.237845230708404
 40
1.237845230708404
 10
95.98512368580001
 20
213.8808105612
 30
0.0
 10
95.89844394604268
 20
213.9296368538539
 30
0.0
 10
95.73485721363361
 20
214.0222939267022
 30
0.0
 10
95.50220778668419
 20
214.1541966740481
 30
0.0
 10
95.29020159613478
 20
214.2701372954967
 30
0.0
 10
95.09020319700839
 20
214.3712939715169
 30
0.0
 10
94.94618088875389
 20
214.4099682895
 30
0.0
 10
94.87450221160001
 20
214.4099682895
 30
0.0
 11
95.98512368580001
 21
213.8808105612
 31
0.0
 11
95.72532611579999
 21
214.0277176062
 31
0.0
 11
95.49398779589999
 21
214.1580347878
 31
0.0
 11
95.28437478959999
 21
214.2718120952
 31
0.0
 11
95.08483833049998
 21
214.3652557419
 31
0.0
 11
94.87450221160001
 21
214.4099682895
 31
0.0
  0
SPLINE
  5
532
330
217
100
AcDbEntity
  8
0
  6
Continuous
 62
     7
100
AcDbSpline
210
0.0
220
0.0
230
1.0
 70
     8
 71
     3
 72
     9
 73
     5
 74
     3
 42
0.0000000001
 43
0.0000000001
 44
0.0000000001
 12
0.1221066206207053
 22
0.9925169888725285
 32
0.0
 13
0.3751958748209938
 23
0.9269455515386592
 33
0.0
 40
0.0
 40
0.0
 40
0.0
 40
0.0
 40
0.0723541979819691
 40
0.1450878340512054
 40
0.1450878340512054
 40
0.1450878340512054
 40
0.1450878340512054
 10
95.94807235040001
 20
213.7408576918
 30
0.0
 10
95.95101732593445
 20
213.7647952820378
 30
0.0
 10
95.96042662092555
 20
213.8124187087631
 30
0.0
 10
95.97602723239537
 20
213.8583371877328
 30
0.0
 10
95.98512368580001
 20
213.8808105612
 30
0.0
 11
95.94807235040001
 21
213.7408576918
 31
0.0
 11
95.96194175729999
 21
213.8118701521
 31
0.0
 11
95.98512368580001
 21
213.8808105612
 31
0.0
  0
SPLINE
  5
533
330
217
100
AcDbEntity
  8
0
  6
Continuous
 62
     7
100
AcDbSpline
210
0.0
220
0.0
230
1.0
 70
     8
 71
     3
 72
    12
 73
     8
 74
     6
 42
0.0000000001
 43
0.0000000001
 44
0.0000000001
 12
0.0
 22
1.0
 32
0.0
 13
0.8556971484024428
 23
-0.5174769465550398
 33
0.0
 40
0.0
 40
0.0
 40
0.0
 40
0.0
 40
0.1675959631961243
 40
0.3056676584824617
 40
0.4229096704834737
 40
0.5397812260033287
 40
0.6776042301176055
 40
0.6776042301176055
 40
0.6776042301176055
 40
0.6776042301176055
 10
80.7571450854
 20
177.5728020866
 30
0.0
 10
80.7571450854
 20
177.6286674076654
 30
0.0
 10
80.767414999123
 20
177.7312041682602
 30
0.0
 10
80.82175935979885
 20
177.8642997807616
 30
0.0
 10
80.91862338043945
 20
177.9517131028676
 30
0.0
 10
81.04896419158817
 20
177.9664735622352
 30
0.0
 10
81.12959363083172
 20
177.9317131284113
 30
0.0
 10
81.16890521470001
 20
177.9079397193
 30
0.0
 11
80.7571450854
 21
177.5728020866
 31
0.0
 11
80.77712777130001
 21
177.7392025047
 31
0.0
 11
80.83427400149998
 21
177.8648930032
 31
0.0
 11
80.92401464529999
 21
177.9403403771
 31
0.0
 11
81.0398058522
 21
177.9561946161
 31
0.0
 11
81.16890521470001
 21
177.9079397193
 31
0.0
  0
SPLINE
  5
534
330
217
100
AcDbEntity
  8
0
  6
Continuous
 62
     7
100
AcDbSpline
210
0.0
220
0.0
230
1.0
 70
     8
 71
     3
 72
    19
 73
    15
 74
    13
 42
0.0000000001
 43
0.0000000001
 44
0.0000000001
 12
-1.0
 22
0.0
 32
0.0
 13
0.1961622512124862
 23
0.9805714513482682
 33
0.0
 40
0.0
 40
0.0
 40
0.0
 40
0.0
 40
0.3459500039405261
 40
0.6556257659845622
 40
0.9347313308775165
 40
1.187986057286024
 40
1.418656641059143
 40
1.629711852588182
 40
1.823386171024266
 40
2.001766792265955
 40
2.166100672655872
 40
2.328576007032859
 40
2.47814936473937
 40
2.609037116653559
 40
2.609037116653559
 40
2.609037116653559
 40
2.609037116653559
 10
97.50519266419999
 20
208.8808105612
 30
0.0
 10
97.38987599621982
 20
208.8808105612
 30
0.0
 10
97.171070510424
 20
208.8969001051681
 30
0.0
 10
96.8649696824019
 20
208.9580639722695
 30
0.0
 10
96.59627244604733
 20
209.0405826311354
 30
0.0
 10
96.36008109825857
 20
209.1356344854653
 30
0.0
 10
96.15196059322599
 20
209.2378104238187
 30
0.0
 10
95.96846468194192
 20
209.3438988847326
 30
0.0
 10
95.80699524795027
 20
209.4523768272571
 30
0.0
 10
95.66621817202697
 20
209.562917827314
 30
0.0
 10
95.54385011721597
 20
209.6790879476863
 30
0.0
 10
95.44442733300376
 20
209.8038533585022
 30
0.0
 10
95.38292816571503
 20
209.9414135827356
 30
0.0
 10
95.38270460827613
 20
210.0380287854806
 30
0.0
 10
95.3912630203
 20
210.0808103831
 30
0.0
 11
97.50519266419999
 21
208.8808105612
 31
0.0
 11
97.16010737059999
 21
208.9052553023
 31
0.0
 11
96.8563220763
 21
208.9653683006
 31
0.0
 11
96.5894223257
 21
209.0470043189
 31
0.0
 11
96.3544264615
 21
209.1414230684
 31
0.0
 11
96.1473723307
 21
209.2430965907
 31
0.0
 11
95.9647524962
 21
209.348899702
 31
0.0
 11
95.80421780989999
 21
209.4572433964
 31
0.0
 11
95.66440996809999
 21
209.568028835
 31
0.0
 11
95.5461696927
 21
209.6821553504
 31
0.0
 11
95.4476445082
 21
209.8113490898
 31
0.0
 11
95.3913457007
 21
209.9499226573
 31
0.0
 11
95.3912630203
 21
210.0808103831
 31
0.0
  0
SPLINE
  5
535
330
217
100
AcDbEntity
  8
0
  6
Continuous
 62
     7
100
AcDbSpline
210
0.0
220
0.0
230
1.0
 70
     8
 71
     3
 72
     9
 73
     5
 74
     3
 42
0.0000000001
 43
0.0000000001
 44
0.0000000001
 12
0.3749942526501753
 22
-0.9270271357837032
 32
0.0
 13
0.1220800103094939
 23
-0.9925202623034119
 33
0.0
 40
0.0
 40
0.0
 40
0.0
 40
0.0
 40
0.0727995211946402
 40
0.1450833822993288
 40
0.1450833822993288
 40
0.1450833822993288
 40
0.1450833822993288
 10
114.1682231838
 20
213.8808105612
 30
0.0
 10
114.1773229844812
 20
213.8583148506601
 30
0.0
 10
114.1929140977543
 20
213.8123946189868
 30
0.0
 10
114.202317364497
 20
213.764772090728
 30
0.0
 10
114.205258836
 20
213.7408576918
 30
0.0
 11
114.1682231838
 21
213.8808105612
 31
0.0
 11
114.1914115345
 21
213.8118028031
 31
0.0
 11
114.205258836
 21
213.7408576918
 31
0.0
  0
SPLINE
  5
536
330
217
100
AcDbEntity
  8
0
  6
Continuous
 62
     7
100
AcDbSpline
210
0.0
220
0.0
230
1.0
 70
     8
 71
     3
 72
    19
 73
    15
 74
    13
 42
0.0000000001
 43
0.0000000001
 44
0.0000000001
 12
0.1972907475544264
 22
-0.9803450213722795
 32
0.0
 13
-1.0
 23
0.0
 33
0.0
 40
0.0
 40
0.0
 40
0.0
 40
0.0
 40
0.1310518399016218
 40
0.2812600576690839
 40
0.4449750179920676
 40
0.6109390364094021
 40
0.7913368855267479
 40
0.9873533403460477
 40
1.201030383611794
 40
1.434510239304265
 40
1.690662356817078
 40
1.972651948123854
 40
2.285229180276296
 40
2.634141323030326
 40
2.634141323030326
 40
2.634141323030326
 40
2.634141323030326
 10
114.7636549117
 20
210.0808103331
 30
0.0
 10
114.7722733501875
 20
210.0379849935036
 30
0.0
 10
114.7718197942616
 20
209.9409964066425
 30
0.0
 10
114.7088519826085
 20
209.8032694670152
 30
0.0
 10
114.6075863577493
 20
209.6784993655504
 30
0.0
 10
114.4830432100414
 20
209.5622584590315
 30
0.0
 10
114.3398134304213
 20
209.4516200547708
 30
0.0
 10
114.1756089031799
 20
209.3430508574068
 30
0.0
 10
113.9891496005214
 20
209.2369233481616
 30
0.0
 10
113.7779148654535
 20
209.134805046286
 30
0.0
 10
113.5385698566593
 20
209.0399375815056
 30
0.0
 10
113.2667672961843
 20
208.9577025139796
 30
0.0
 10
112.9576484070992
 20
208.8968253461402
 30
0.0
 10
112.7368943050846
 20
208.8808105612
 30
0.0
 10
112.6205902575
 20
208.8808105612
 30
0.0
 11
114.7636549117
 21
210.0808103331
 31
0.0
 11
114.7633082116
 21
209.9497589518
 31
0.0
 11
114.7057673598
 21
209.8110089642
 31
0.0
 11
114.605366229
 21
209.681694614
 31
0.0
 11
114.4849839895
 21
209.567448512
 31
0.0
 11
114.3427109252
 21
209.4565352164
 31
0.0
 11
114.1794320898
 21
209.3480802835
 31
0.0
 11
113.9938246508
 21
209.2422135871
 31
0.0
 11
113.7836287812
 21
209.1405743259
 31
0.0
 11
113.5454487304
 21
209.046318447
 31
0.0
 11
113.2754513426
 21
208.9649578903
 31
0.0
 11
112.9686542215
 21
208.90512435
 31
0.0
 11
112.6205902575
 21
208.8808105612
 31
0.0
  0
SPLINE
  5
537
330
217
100
AcDbEntity
  8
0
  6
Continuous
 62
     7
100
AcDbSpline
210
0.0
220
0.0
230
1.0
 70
     8
 71
     3
 72
    12
 73
     8
 74
     6
 42
0.0000000001
 43
0.0000000001
 44
0.0000000001
 12
-0.9999999999999998
 22
0.0
 32
0.0
 13
-0.8747928380037153
 23
-0.4844971522902952
 33
0.0
 40
0.0
 40
0.0
 40
0.0
 40
0.0
 40
0.2246599980984242
 40
0.4461772086258429
 40
0.683506319494197
 40
0.9504204312191058
 40
1.259987357032064
 40
1.259987357032064
 40
1.259987357032064
 40
1.259987357032064
 10
115.3034750876
 20
214.4099682895
 30
0.0
 10
115.2285884215672
 20
214.4099682895
 30
0.0
 10
115.0810795684591
 20
214.3701804014977
 30
0.0
 10
114.8772260883645
 20
214.2697657683515
 30
0.0
 10
114.6636114261122
 20
214.1557607475912
 30
0.0
 10
114.4264397251243
 20
214.0242144795835
 30
0.0
 10
114.258492160328
 20
213.9308053258665
 30
0.0
 10
114.1682231838
 20
213.8808105612
 30
0.0
 11
115.3034750876
 21
214.4099682895
 31
0.0
 11
115.0837010696
 21
214.3633689788
 31
0.0
 11
114.8823605554
 21
214.2710008463
 31
0.0
 11
114.6726430132
 21
214.159898824
 31
0.0
 11
114.4388827196
 21
214.0310606768
 31
0.0
 11
114.1682231838
 21
213.8808105612
 31
0.0
  0
SPLINE
  5
538
330
217
100
AcDbEntity
  8
0
  6
Continuous
 62
     7
100
AcDbSpline
210
0.0
220
0.0
230
1.0
 70
     8
 71
     3
 72
    39
 73
    35
 74
    33
 42
0.0000000001
 43
0.0000000001
 44
0.0000000001
 12
1.0
 22
0.0
 32
0.0
 13
-1.0
 23
0.0
 33
0.0
 40
0.0
 40
0.0
 40
0.0
 40
0.0
 40
0.0796946425214786
 40
0.1534228291569841
 40
0.2217063737846159
 40
0.2851094149261201
 40
0.3442328504127148
 40
0.3996410964643429
 40
0.4516488571945886
 40
0.500363843190251
 40
0.5459477764321417
 40
0.5886067213408963
 40
0.6286349020001526
 40
0.6662077429311722
 40
0.7013710142217438
 40
0.7344319049348301
 40
0.7650553985740201
 40
0.7912144922994161
 40
0.8111019349647236
 40
0.8324339548365642
 40
0.8575962913898527
 40
0.8853051384832092
 40
0.915482582837116
 40
0.9484185601605757
 40
0.9845214496144787
 40
1.024205943207574
 40
1.067803351165319
 40
1.115475896994515
 40
1.167169054559136
 40
1.223539501378684
 40
1.28534022593578
 40
1.353171204271191
 40
1.427606408743285
 40
1.509227876911893
 40
1.509227876911893
 40
1.509227876911893
 40
1.509227876911893
 10
115.2051156768
 20
214.6338735219
 30
0.0
 10
115.2316805576405
 20
214.6338735219
 30
0.0
 10
115.2828222812775
 20
214.6335061977737
 30
0.0
 10
115.3567101703993
 20
214.6319520286481
 30
0.0
 10
115.4251434042465
 20
214.6296010621354
 30
0.0
 10
115.4886767618866
 20
214.6265789495456
 30
0.0
 10
115.5478799439911
 20
214.6229643283211
 30
0.0
 10
115.6032387210545
 20
214.6188009762056
 30
0.0
 10
115.6550729112629
 20
214.6141126088497
 30
0.0
 10
115.7035663389562
 20
214.6089116512872
 30
0.0
 10
115.7488620903576
 20
214.6031940346229
 30
0.0
 10
115.7911623820653
 20
214.5969239792072
 30
0.0
 10
115.8306500707877
 20
214.5900187330186
 30
0.0
 10
115.8674759696853
 20
214.5823616899392
 30
0.0
 10
115.9016102483819
 20
214.573667966833
 30
0.0
 10
115.9332424862178
 20
214.5637181145141
 30
0.0
 10
115.9600487226088
 20
214.5513820265647
 30
0.0
 10
115.9833100678353
 20
214.5374143625594
 30
0.0
 10
115.9871005053543
 20
214.5114738093631
 30
0.0
 10
115.9684350665167
 20
214.4960660657256
 30
0.0
 10
115.94724018821
 20
214.4843340728298
 30
0.0
 10
115.9212232274772
 20
214.4742022597052
 30
0.0
 10
115.8923451176813
 20
214.4652649983534
 30
0.0
 10
115.8602580893032
 20
214.4571310923228
 30
0.0
 10
115.8248054898072
 20
214.4496055708765
 30
0.0
 10
115.7856265700591
 20
214.4425881986763
 30
0.0
 10
115.7424615692143
 20
214.4360618818168
 30
0.0
 10
115.6951816170049
 20
214.4300661392925
 30
0.0
 10
115.6435496288904
 20
214.4246463802113
 30
0.0
 10
115.5871273426964
 20
214.4198593211185
 30
0.0
 10
115.5252565490703
 20
214.4157924176732
 30
0.0
 10
115.4573056636901
 20
214.4125915287373
 30
0.0
 10
115.3827026798863
 20
214.4104637433451
 30
0.0
 10
115.3306822436562
 20
214.4099682895
 30
0.0
 10
115.3034750876
 20
214.4099682895
 30
0.0
 11
115.2051156768
 21
214.6338735219
 31
0.0
 11
115.2848082616
 21
214.6333008313
 31
0.0
 11
115.3585200117
 21
214.6317441034
 31
0.0
 11
115.4267629528
 21
214.6293896487
 31
0.0
 11
115.4900937746
 21
214.6263643163
 31
0.0
 11
115.549106379
 21
214.6227458711
 31
0.0
 11
115.6043572108
 21
214.6185722257
 31
0.0
 11
115.6561515533
 21
214.6138655006
 31
0.0
 11
115.7045859355
 21
214.6086443435
 31
0.0
 11
115.7498069781
 21
214.6029039362
 31
0.0
 11
115.7919986858
 21
214.5966074783
 31
0.0
 11
115.8314195645
 21
214.5896612873
 31
0.0
 11
115.8681865043
 21
214.5819210991
 31
0.0
 11
115.9022409058
 21
214.5731601981
 31
0.0
 11
115.9336509987
 21
214.5628437763
 31
0.0
 11
115.961463814
 21
214.5500279397
 31
0.0
 11
115.9815401125
 21
214.5332577154
 31
0.0
 11
115.9837814341
 21
214.5134969752
 31
0.0
 11
115.9694685347
 21
214.4976793906
 31
0.0
 11
115.9476365502
 21
214.4851690895
 31
0.0
 11
115.9219343806
 21
214.4748163756
 31
0.0
 11
115.8931437064
 21
214.46577341
 31
0.0
 11
115.8612402366
 21
214.4575912821
 31
0.0
 11
115.8259373917
 21
214.4500329907
 31
0.0
 11
115.7868833601
 21
214.4429873078
 31
0.0
 11
115.7437819871
 21
214.4364294403
 31
0.0
 11
115.6964925207
 21
214.4303980231
 31
0.0
 11
115.6450848378
 21
214.4249728339
 31
0.0
 11
115.5889183242
 21
214.4201822155
 31
0.0
 11
115.5272521527
 21
214.4161063293
 31
0.0
 11
115.4594972322
 21
214.4128950414
 31
0.0
 11
115.3850927475
 21
214.4107567427
 31
0.0
 11
115.3034750876
 21
214.4099682895
 31
0.0
  0
SPLINE
  5
539
330
217
100
AcDbEntity
  8
0
  6
Continuous
 62
     7
100
AcDbSpline
210
0.0
220
0.0
230
1.0
 70
     8
 71
     3
 72
    11
 73
     7
 74
     5
 42
0.0000000001
 43
0.0000000001
 44
0.0000000001
 12
1.0
 22
0.0
 32
0.0
 13
1.0
 23
0.0
 33
0.0
 40
0.0
 40
0.0
 40
0.0
 40
0.0
 40
0.4303031015075662
 40
0.8357026070518729
 40
1.206123923177652
 40
1.527885222659832
 40
1.527885222659832
 40
1.527885222659832
 40
1.527885222659832
 10
113.700256992
 20
214.8808105612
 30
0.0
 10
113.8436913591692
 20
214.8808105612
 30
0.0
 10
114.1223225948006
 20
214.8578708305736
 30
0.0
 10
114.5177252853669
 20
214.780681869639
 30
0.0
 10
114.8707897762899
 20
214.6905773886925
 30
0.0
 10
115.0978619103059
 20
214.6338735219
 30
0.0
 10
115.2051156768
 20
214.6338735219
 30
0.0
 11
113.700256992
 21
214.8808105612
 31
0.0
 11
114.1293893004
 21
214.8490895736
 31
0.0
 11
114.5278884072
 21
214.7746099054
 31
0.0
 11
114.8877067072
 21
214.686617051
 31
0.0
 11
115.2051156768
 21
214.6338735219
 31
0.0
  0
SPLINE
  5
53A
330
217
100
AcDbEntity
  8
0
  6
Continuous
 62
     7
100
AcDbSpline
210
0.0
220
0.0
230
1.0
 70
     8
 71
     3
 72
    10
 73
     6
 74
     4
 42
0.0000000001
 43
0.0000000001
 44
0.0000000001
 12
0.1961622426767353
 22
0.9805714530558359
 32
0.0
 13
0.1221066205508243
 23
0.9925169888811257
 33
0.0
 40
0.0
 40
0.0
 40
0.0
 40
0.0
 40
1.087966924788355
 40
2.320061913550245
 40
3.702857799706463
 40
3.702857799706463
 40
3.702857799706463
 40
3.702857799706463
 10
95.3912630543
 20
210.0808105612
 30
0.0
 10
95.46240239827486
 20
210.4364203306388
 30
0.0
 10
95.59695763856396
 20
211.1981722090797
 30
0.0
 10
95.77941822859243
 20
212.418964973921
 30
0.0
 10
95.89178950620997
 20
213.283374888745
 30
0.0
 10
95.94807235040001
 20
213.7408576918
 30
0.0
 11
95.3912630543
 21
210.0808105612
 31
0.0
 11
95.58414947260001
 21
211.151542488
 31
0.0
 11
95.7683337567
 21
212.3697929593
 31
0.0
 11
95.94807235040001
 21
213.7408576918
 31
0.0
  0
SPLINE
  5
53B
330
217
100
AcDbEntity
  8
0
  6
Continuous
 62
     7
100
AcDbSpline
210
0.0
220
0.0
230
1.0
 70
     8
 71
     3
 72
    10
 73
     6
 74
     4
 42
0.0000000001
 43
0.0000000001
 44
0.0000000001
 12
0.1220800101755235
 22
-0.9925202623198904
 32
0.0
 13
0.1972907364642485
 23
-0.9803450236041362
 33
0.0
 40
0.0
 40
0.0
 40
0.0
 40
0.0
 40
1.369830648582165
 40
2.5999940903039
 40
3.703118057100009
 40
3.703118057100009
 40
3.703118057100009
 40
3.703118057100009
 10
114.205258836
 20
213.7408576918
 30
0.0
 10
114.2610018158392
 20
213.2876628002452
 30
0.0
 10
114.3727480752256
 20
212.4281783606692
 30
0.0
 10
114.5553940890143
 20
211.2073265640027
 30
0.0
 10
114.6911094883598
 20
210.441291258289
 30
0.0
 10
114.7636548683
 20
210.0808105612
 30
0.0
 11
114.205258836
 21
213.7408576918
 31
0.0
 11
114.3833285362
 21
212.3826503484
 31
0.0
 11
114.5673950524
 21
211.166335582
 31
0.0
 11
114.7636548683
 21
210.0808105612
 31
0.0
  0
SPLINE
  5
53C
330
217
100
AcDbEntity
  8
0
  6
Continuous
 62
     7
100
AcDbSpline
210
0.0
220
0.0
230
1.0
 70
     8
 71
     3
 72
    12
 73
     8
 74
     6
 42
0.0000000001
 43
0.0000000001
 44
0.0000000001
 12
0.0037023315451707
 22
0.9999931463470785
 32
0.0
 13
-0.0036999805808142
 23
0.9999931550484241
 33
0.0
 40
0.0
 40
0.0
 40
0.0
 40
0.0
 40
0.2157245250567184
 40
1.386074329886354
 40
2.591441132386363
 40
3.761790937215999
 40
3.976935338309263
 40
3.976935338309263
 40
3.976935338309263
 40
3.976935338309263
 10
136.4733261647
 20
173.9920629347
 30
0.0
 10
136.4735923926047
 20
174.0639706168852
 30
0.0
 10
136.4751000056223
 20
174.5259929620138
 30
0.0
 10
136.4797017433784
 20
175.3897956309836
 30
0.0
 10
136.4797017439716
 20
176.5718254912985
 30
0.0
 10
136.4751010346717
 20
177.4354347881614
 30
0.0
 10
136.4735936551687
 20
177.8972637581199
 30
0.0
 10
136.4733283118
 20
177.9689780675999
 30
0.0
 11
136.4733261647
 21
173.9920629347
 31
0.0
 11
136.4740847749
 21
174.2077861259
 31
0.0
 11
136.4786157572
 21
175.3781271599
 31
0.0
 11
136.4786157572
 21
176.5834939624
 31
0.0
 11
136.4740847749
 21
177.7538349964
 31
0.0
 11
136.4733283118
 21
177.9689780675999
 31
0.0
  0
SPLINE
  5
53D
330
217
100
AcDbEntity
  8
0
  6
Continuous
 62
     7
100
AcDbSpline
210
0.0
220
0.0
230
1.0
 70
     8
 71
     3
 72
    11
 73
     7
 74
     5
 42
0.0000000001
 43
0.0000000001
 44
0.0000000001
 12
1.0
 22
0.0
 32
0.0
 13
1.0
 23
0.0
 33
0.0
 40
0.0
 40
0.0
 40
0.0
 40
0.0
 40
0.3205072460925422
 40
0.6915107984395484
 40
1.097939428666027
 40
1.530879016969724
 40
1.530879016969724
 40
1.530879016969724
 40
1.530879016969724
 10
94.9791311793
 20
214.6338735219
 30
0.0
 10
95.08596692799752
 20
214.6338735219
 30
0.0
 10
95.31269791762177
 20
214.6912241299634
 30
0.0
 10
95.6659262979341
 20
214.7810559934172
 30
0.0
 10
96.0628235821686
 20
214.8580719600551
 30
0.0
 10
96.34268392639876
 20
214.8808105612
 30
0.0
 10
96.4869971225
 20
214.8808105612
 30
0.0
 11
94.9791311793
 21
214.6338735219
 31
0.0
 11
95.2952264706
 21
214.6868703295
 31
0.0
 11
95.6556260352
 21
214.7749372909
 31
0.0
 11
96.0552135066
 21
214.8491941705
 31
0.0
 11
96.4869971225
 21
214.8808105612
 31
0.0
  0
SPLINE
  5
53E
330
217
100
AcDbEntity
  8
0
  6
Continuous
 62
     7
100
AcDbSpline
210
0.0
220
0.0
230
1.0
 70
     8
 71
     3
 72
    16
 73
    12
 74
    10
 42
0.0000000001
 43
0.0000000001
 44
0.0000000001
 12
-0.9999999999997207
 22
-0.0000007473283576
 32
0.0
 13
0.0007841268921153
 23
0.9999996925724612
 33
0.0
 40
0.0
 40
0.0
 40
0.0
 40
0.0
 40
0.6313637160339651
 40
1.276815786089937
 40
1.92742471712141
 40
2.570517403299154
 40
3.211359379933286
 40
3.86693402158605
 40
4.537419862823186
 40
5.210440859329008
 40
5.878094926341753
 40
5.878094926341753
 40
5.878094926341753
 40
5.878094926341753
 10
105.0344494183
 20
188.2308105613
 30
0.0
 10
104.8239948462887
 20
188.2308104040213
 30
0.0
 10
104.3975259811023
 20
188.2668142007221
 30
0.0
 10
103.7728770146302
 20
188.4297175999301
 30
0.0
 10
103.1819384917732
 20
188.6997498715856
 30
0.0
 10
102.6478345567314
 20
189.06674295199
 30
0.0
 10
102.1832336657148
 20
189.5208656678187
 30
0.0
 10
101.7985368665436
 20
190.0559151373717
 30
0.0
 10
101.5094672507675
 20
190.6603301121815
 30
0.0
 10
101.331821243174
 20
191.3103263929887
 30
0.0
 10
101.2922712229971
 20
191.7582592739475
 30
0.0
 10
101.2924457315
 20
191.9808105612
 30
0.0
 11
105.0344494183
 21
188.2308105613
 31
0.0
 11
104.4053301843
 21
188.2840001405
 31
0.0
 11
103.780766353
 21
188.4468755388
 31
0.0
 11
103.18902296
 21
188.7173043427
 31
0.0
 11
102.6589837847
 21
189.081483798
 31
0.0
 11
102.2006886013
 21
189.5294167884
 31
0.0
 11
101.8179772221
 21
190.0616856218
 31
0.0
 11
101.5286627404
 21
190.6665396488
 31
0.0
 11
101.3512233456
 21
191.3157488007
 31
0.0
 11
101.2924457315
 21
191.9808105612
 31
0.0
  0
SPLINE
  5
53F
330
217
100
AcDbEntity
  8
0
  6
Continuous
 62
     7
100
AcDbSpline
210
0.0
220
0.0
230
1.0
 70
     8
 71
     3
 72
    25
 73
    21
 74
    19
 42
0.0000000001
 43
0.0000000001
 44
0.0000000001
 12
0.0008008607444574
 22
0.9999996793109826
 32
0.0
 13
0.9999998634046802
 23
0.0005226764012433
 33
0.0
 40
0.0
 40
0.0
 40
0.0
 40
0.0
 40
0.5469257501091578
 40
1.093531546516594
 40
1.644550014874155
 40
2.485101486381719
 40
3.334759624616685
 40
4.183233528936731
 40
5.023440822266179
 40
5.851174078413376
 40
6.672949066192861
 40
7.496837350379202
 40
8.327664785908005
 40
9.168163639606145
 40
10.01406638327306
 40
10.85899479895532
 40
11.69345860367842
 40
12.24004571473523
 40
12.78198340669322
 40
13.32350587289504
 40
13.32350587289504
 40
13.32350587289504
 40
13.32350587289504
 10
96.44748036950002
 20
170.0308105612
 30
0.0
 10
96.44762637328781
 20
170.2131190861053
 30
0.0
 10
96.45912573255355
 20
170.5777232484583
 30
0.0
 10
96.51096990553169
 20
171.1238209877246
 30
0.0
 10
96.61394823544759
 20
171.762054704694
 30
0.0
 10
96.79283516131008
 20
172.4886589666572
 30
0.0
 10
97.07394282187792
 20
173.2882979099955
 30
0.0
 10
97.43473296639704
 20
174.0552214910127
 30
0.0
 10
97.86512598454962
 20
174.7767369989577
 30
0.0
 10
98.35901226238224
 20
175.4453784068951
 30
0.0
 10
98.91294803034856
 20
176.0577988516137
 30
0.0
 10
99.52412723376916
 20
176.6146162087735
 30
0.0
 10
100.1922182443193
 20
177.1123466623821
 30
0.0
 10
100.9127919167141
 20
177.5449225602526
 30
0.0
 10
101.6769520049977
 20
177.9061186641611
 30
0.0
 10
102.4719542959849
 20
178.1869616966572
 30
0.0
 10
103.1934739233519
 20
178.3652921714161
 30
0.0
 10
103.8266820485356
 20
178.4676230529872
 30
0.0
 10
104.3679380006603
 20
178.5192661179006
 30
0.0
 10
104.7291882245225
 20
178.5307162141953
 30
0.0
 10
104.9096956886
 20
178.5308105612
 30
0.0
 11
96.44748036950002
 21
170.0308105612
 31
0.0
 11
96.46487597
 21
170.5774595978
 31
0.0
 11
96.51671224060001
 21
171.1216019484
 31
0.0
 11
96.60438716780001
 21
171.6656005326
 31
0.0
 11
96.80503037700001
 21
172.4818536054
 31
0.0
 11
97.08742569080001
 21
173.2832098549
 31
0.0
 11
97.44822754040001
 21
174.0511486491
 31
0.0
 11
97.8788294505
 21
174.772626501
 31
0.0
 11
98.37082204799999
 21
175.4382732747
 31
0.0
 11
98.92184527659999
 21
176.0479350925
 31
0.0
 11
99.53101139760001
 21
176.6026499218
 31
0.0
 11
100.1972726269
 21
177.0990068518
 31
0.0
 11
100.9177900229
 21
177.5317804706
 31
0.0
 11
101.6827200603
 21
177.8929362398
 31
0.0
 11
102.4792107047
 21
178.1749055307
 31
0.0
 11
103.2893804703
 21
178.3747924795
 31
0.0
 11
103.8289721534
 21
178.4619606245
 31
0.0
 11
104.3684481875
 21
178.513555882
 31
0.0
 11
104.9096956886
 21
178.5308105612
 31
0.0
  0
SPLINE
  5
540
330
217
100
AcDbEntity
  8
0
  6
Continuous
 62
     7
100
AcDbSpline
210
0.0
220
0.0
230
1.0
 70
     8
 71
     3
 72
    25
 73
    21
 74
    19
 42
0.0000000001
 43
0.0000000001
 44
0.0000000001
 12
0.0008007023925817
 22
0.999999679437788
 32
0.0
 13
0.9999998647744689
 23
0.000520049077905
 33
0.0
 40
0.0
 40
0.0
 40
0.0
 40
0.0
 40
0.522146138799858
 40
1.043910397894154
 40
1.5697198716715
 40
2.371307612150887
 40
3.180690562430642
 40
3.987705969844264
 40
4.785369150627726
 40
5.569385781175636
 40
6.345737489400006
 40
7.12184691717266
 40
7.902105004478394
 40
8.688931931534945
 40
9.478435026182109
 40
10.26481498614034
 40
11.03972407512231
 40
11.5465888915147
 40
12.04877148928806
 40
12.55038655415421
 40
12.55038655415421
 40
12.55038655415421
 40
12.55038655415421
 10
96.93469443659999
 20
170.0308105612
 30
0.0
 10
96.93483379782087
 20
170.2048592183398
 30
0.0
 10
96.94605465382693
 20
170.5529228687155
 30
0.0
 10
96.99661405420613
 20
171.0740837834175
 30
0.0
 10
97.09693174036516
 20
171.6826858282075
 30
0.0
 10
97.27097356191046
 20
172.3746034471175
 30
0.0
 10
97.54370828805667
 20
173.1344926538948
 30
0.0
 10
97.89261499241172
 20
173.8611551217583
 30
0.0
 10
98.30717378482503
 20
174.5424490141421
 30
0.0
 10
98.78078162541209
 20
175.1713757173374
 30
0.0
 10
99.30942353748845
 20
175.7449879921066
 30
0.0
 10
99.88983016068022
 20
176.2642459411256
 30
0.0
 10
100.5211035767263
 20
176.7263564768649
 30
0.0
 10
101.1986894613928
 20
177.1262427288774
 30
0.0
 10
101.9140578283035
 20
177.4587934197055
 30
0.0
 10
102.6553922001625
 20
177.716506530929
 30
0.0
 10
103.3263368410169
 20
177.8796816866827
 30
0.0
 10
103.9139837300675
 20
177.9731645772756
 30
0.0
 10
104.4156583210466
 20
178.0202811220641
 30
0.0
 10
104.7503443481883
 20
178.0307236063826
 30
0.0
 10
104.9175493472
 20
178.0308105611999
 30
0.0
 11
96.93469443659999
 21
170.0308105612
 31
0.0
 11
96.95166351920001
 21
170.5526808904
 31
0.0
 11
97.0022117066
 21
171.0719908391
 31
0.0
 11
97.08763602219999
 21
171.5908147871
 31
0.0
 11
97.2828401988
 21
172.3682710464
 31
0.0
 11
97.55683776719999
 21
173.1298654875
 31
0.0
 11
97.9057444418
 21
173.8575591045
 31
0.0
 11
98.3205235914
 21
174.5388995532
 31
0.0
 11
98.7923298343
 21
175.1650632268
 31
0.0
 11
99.31823513110002
 21
175.7361548076
 31
0.0
 11
99.89676899959999
 21
176.2534984138
 31
0.0
 11
100.5263738423
 21
176.7143676195999
 31
0.0
 11
101.2039078516
 21
177.114422965
 31
0.0
 11
101.9199794953
 21
177.4469233974
 31
0.0
 11
102.6625988814
 21
177.705592856
 31
0.0
 11
103.4156324054
 21
177.8884168367
 31
0.0
 11
103.9162091009
 21
177.9680090098
 31
0.0
 11
104.4161811035
 21
178.0150766008
 31
0.0
 11
104.9175493472
 21
178.0308105611999
 31
0.0
  0
SPLINE
  5
541
330
217
100
AcDbEntity
  8
0
  6
Continuous
 62
     7
100
AcDbSpline
210
0.0
220
0.0
230
1.0
 70
     8
 71
     3
 72
    25
 73
    21
 74
    19
 42
0.0000000001
 43
0.0000000001
 44
0.0000000001
 12
0.9999998172394148
 22
-0.0006045834408997
 32
0.0
 13
0.0007848991373388
 23
-0.9999996919666246
 33
0.0
 40
0.0
 40
0.0
 40
0.0
 40
0.0
 40
0.5427047390026181
 40
1.086088660806391
 40
1.634013033595229
 40
2.470912094685016
 40
3.318559921170092
 40
4.16705170040052
 40
5.009731675211932
 40
5.842250576469425
 40
6.668098726332202
 40
7.492756216344854
 40
8.323512810400323
 40
9.16596072209888
 40
10.0156161406239
 40
10.86536179115021
 40
11.70529851055119
 40
12.25573790929255
 40
12.80165380705189
 40
13.34775794327683
 40
13.34775794327683
 40
13.34775794327683
 40
13.34775794327683
 10
104.9096956886
 20
178.5308105612
 30
0.0
 10
105.0905972352059
 20
178.5307011911005
 30
0.0
 10
105.4527228141731
 20
178.5192092865643
 30
0.0
 10
105.9952943735807
 20
178.4674137602745
 30
0.0
 10
106.6302052165726
 20
178.3647081529944
 30
0.0
 10
107.3538303117187
 20
178.1859009608607
 30
0.0
 10
108.1513911328095
 20
177.9045712538041
 30
0.0
 10
108.9181131521002
 20
177.5429751169918
 30
0.0
 10
109.6411588000954
 20
177.1103684908349
 30
0.0
 10
110.3119071801072
 20
176.6129739379481
 30
0.0
 10
110.9260983607756
 20
176.0562373617635
 30
0.0
 10
111.4835363736701
 20
175.4434625115418
 30
0.0
 10
111.9811456190331
 20
174.7741943134341
 30
0.0
 10
112.414723336442
 20
174.0520657863127
 30
0.0
 10
112.7780037224475
 20
173.2850128219455
 30
0.0
 10
113.0609707173789
 20
172.4857844076397
 30
0.0
 10
113.2409731062152
 20
171.7598201208907
 30
0.0
 10
113.3445783271347
 20
171.1223188792096
 30
0.0
 10
113.3967424030445
 20
170.5769469778258
 30
0.0
 10
113.4083137018115
 20
170.2128452172022
 30
0.0
 10
113.4084565807
 20
170.0308105612
 30
0.0
 11
104.9096956886
 21
178.5308105612
 31
0.0
 11
105.4521239561
 21
178.513489812
 31
0.0
 11
105.9930363754
 21
178.4617226301
 31
0.0
 11
106.5339389536
 21
178.3742839705
 31
0.0
 11
107.3464906852
 21
178.1738850635
 31
0.0
 11
108.1456761078
 21
177.8913793148
 31
0.0
 11
108.9132715506
 21
177.5298056216
 31
0.0
 11
109.6363058035
 21
177.0969880976
 31
0.0
 11
110.3049902229
 21
176.6010557754
 31
0.0
 11
110.9170139721
 21
176.0465721444
 31
0.0
 11
111.4717131121
 21
175.4363518236
 31
0.0
 11
111.9675334895
 21
174.769779493
 31
0.0
 11
112.4013464139
 21
174.0476127321
 31
0.0
 11
112.7646152605
 21
173.2795306562
 31
0.0
 11
113.0487822512
 21
172.4787080841
 31
0.0
 11
113.2506129269
 21
171.6633811123
 31
0.0
 11
113.3388103892
 21
171.1200536426
 31
0.0
 11
113.3909606744
 21
170.5766343614
 31
0.0
 11
113.4084565807
 21
170.0308105612
 31
0.0
  0
SPLINE
  5
542
330
217
100
AcDbEntity
  8
0
  6
Continuous
 62
     7
100
AcDbSpline
210
0.0
220
0.0
230
1.0
 70
     8
 71
     3
 72
    25
 73
    21
 74
    19
 42
0.0000000001
 43
0.0000000001
 44
0.0000000001
 12
0.0066038392790386
 22
0.9999781944156465
 32
0.0
 13
0.0045896629348544
 23
-0.9999894674416049
 33
0.0
 40
0.0
 40
0.0
 40
0.0
 40
0.0
 40
0.7369874092905287
 40
1.484023033011664
 40
2.231094272647147
 40
2.966570905462494
 40
3.692402561295313
 40
4.426296286833388
 40
5.170885783638486
 40
5.911062898782319
 40
6.637309146001433
 40
7.364218064053032
 40
8.106216659417144
 40
8.851696160046316
 40
9.58593171531452
 40
10.31212733559695
 40
11.049488913298
 40
11.79747247888333
 40
12.54401508816839
 40
13.27892524240998
 40
13.27892524240998
 40
13.27892524240998
 40
13.27892524240998
 10
100.7939949862
 20
192.0017212079
 30
0.0
 10
100.7956173016672
 20
192.2473783208498
 30
0.0
 10
100.8410988962722
 20
192.7430097868574
 30
0.0
 10
101.0410582697914
 20
193.4630041762725
 30
0.0
 10
101.3572175969674
 20
194.1395840302624
 30
0.0
 10
101.7828704872406
 20
194.7448929173252
 30
0.0
 10
102.3043902022246
 20
195.2634196676205
 30
0.0
 10
102.9106961248228
 20
195.685121735153
 30
0.0
 10
103.5855146476687
 20
195.9968007112497
 30
0.0
 10
104.3012558279861
 20
196.1872694618273
 30
0.0
 10
105.0332510571333
 20
196.2515458370763
 30
0.0
 10
105.7658059100742
 20
196.1867985549464
 30
0.0
 10
106.4825970420725
 20
195.9959686964209
 30
0.0
 10
107.1585041666767
 20
195.6842878067658
 30
0.0
 10
107.7657377883624
 20
195.2630054661081
 30
0.0
 10
108.2884622881499
 20
194.744442377141
 30
0.0
 10
108.7150076738045
 20
194.1384060060242
 30
0.0
 10
109.0312721078488
 20
193.4610262893797
 30
0.0
 10
109.2311404437903
 20
192.7415713445574
 30
0.0
 10
109.2759443701349
 20
192.2466886791525
 30
0.0
 10
109.2770687001
 20
192.0017212079
 30
0.0
 11
100.7939949862
 21
192.0017212079
 31
0.0
 11
100.8623762279
 21
192.7355293894
 31
0.0
 11
101.0605440503
 21
193.4558013778
 31
0.0
 11
101.3780393848
 21
194.1320499635
 31
0.0
 11
101.8013233149
 21
194.7335120088
 31
0.0
 11
102.316002413
 21
195.2453098386
 31
0.0
 11
102.9183557386
 21
195.6645597301
 31
0.0
 11
103.59416064
 21
195.9771317282
 31
0.0
 11
104.3095090546
 21
196.1672338258
 31
0.0
 11
105.0330219183
 21
196.2301841845
 31
0.0
 11
105.75716684
 21
196.1668540375
 31
0.0
 11
106.4742640204
 21
195.9762404247
 31
0.0
 11
107.1510512781
 21
195.6636725222
 31
0.0
 11
107.7541322612
 21
195.2448704467
 31
0.0
 11
108.2696032943
 21
194.7333533962
 31
0.0
 11
108.6942285593
 21
194.1305304698
 31
0.0
 11
109.0119901522
 21
193.4533990317
 31
0.0
 11
109.2098344383
 21
192.7335493905
 31
0.0
 11
109.2770687001
 21
192.0017212079
 31
0.0
  0
SPLINE
  5
543
330
217
100
AcDbEntity
  8
0
  6
Continuous
 62
     7
100
AcDbSpline
210
0.0
220
0.0
230
1.0
 70
     8
 71
     3
 72
    16
 73
    12
 74
    10
 42
0.0000000001
 43
0.0000000001
 44
0.0000000001
 12
0.0007841268873839
 22
0.999999692572465
 32
0.0
 13
0.999999999999795
 23
-0.0000006403571599
 33
0.0
 40
0.0
 40
0.0
 40
0.0
 40
0.0
 40
0.663171485592765
 40
1.334642550290933
 40
2.004162399094614
 40
2.660140645760514
 40
3.303767346491234
 40
3.950662287020121
 40
4.603349446685333
 40
5.249221872092597
 40
5.881070382292545
 40
5.881070382292545
 40
5.881070382292545
 40
5.881070382292545
 10
101.2924457315
 20
191.9808105612
 30
0.0
 10
101.2926190683642
 20
192.2018676551052
 30
0.0
 10
101.3324136112348
 20
192.6477051226408
 30
0.0
 10
101.5094383646426
 20
193.2954194322596
 30
0.0
 10
101.7978331382268
 20
193.8993444783067
 30
0.0
 10
102.182393557701
 20
194.4353939151674
 30
0.0
 10
102.6482093498579
 20
194.8916424104064
 30
0.0
 10
103.1845259874885
 20
195.2605851854734
 30
0.0
 10
103.7773613738344
 20
195.5315667535337
 30
0.0
 10
104.4029642752357
 20
195.6947528826072
 30
0.0
 10
104.8297354340334
 20
195.7308106960695
 30
0.0
 10
105.0403516041
 20
195.7308105612
 30
0.0
 11
101.2924457315
 21
191.9808105612
 31
0.0
 11
101.3514472123
 21
192.6413521909
 31
0.0
 11
101.528468743
 21
193.2890687712
 31
0.0
 11
101.8169949737
 21
193.8932288842
 31
0.0
 11
102.1993791816
 21
194.4262296137
 31
0.0
 11
102.6592033545
 21
194.8765817647
 31
0.0
 11
103.1921795886
 21
195.2432006376
 31
0.0
 11
103.785785768
 21
195.5145532351
 31
0.0
 11
104.4107516014
 21
195.6775529191
 31
0.0
 11
105.0403516041
 21
195.7308105612
 31
0.0
  0
SPLINE
  5
544
330
217
100
AcDbEntity
  8
0
  6
Continuous
 62
     7
100
AcDbSpline
210
0.0
220
0.0
230
1.0
 70
     8
 71
     3
 72
    25
 73
    21
 74
    19
 42
0.0000000001
 43
0.0000000001
 44
0.0000000001
 12
0.0045896629360949
 22
-0.999989467441599
 32
0.0
 13
0.0066038392781835
 23
0.9999781944156522
 33
0.0
 40
0.0
 40
0.0
 40
0.0
 40
0.0
 40
0.7439465077178184
 40
1.494862993240894
 40
2.245521033379902
 40
2.984265171773616
 40
3.714422543998206
 40
4.453570279302285
 40
5.20604424036346
 40
5.955174420872097
 40
6.690312851961801
 40
7.425388652925317
 40
8.174217436743363
 40
8.924461704387466
 40
9.660530982317851
 40
10.38804060422856
 40
11.12633315000014
 40
11.87655669487418
 40
12.62664418250383
 40
13.36897958618154
 40
13.36897958618154
 40
13.36897958618154
 40
13.36897958618154
 10
109.2770687001
 20
192.0017212079
 30
0.0
 10
109.278206854671
 20
191.7537416505474
 30
0.0
 10
109.2380302956339
 20
191.2539731845192
 30
0.0
 10
109.0434139905607
 20
190.5273528628758
 30
0.0
 10
108.7292104633775
 20
189.8457790133189
 30
0.0
 10
108.3041273853422
 20
189.235489101795
 30
0.0
 10
107.7814414741755
 20
188.7119722770308
 30
0.0
 10
107.171452696711
 20
188.2852572662654
 30
0.0
 10
106.4904806244078
 20
187.9691899117506
 30
0.0
 10
105.7667113559772
 20
187.7753342349351
 30
0.0
 10
105.0260359055558
 20
187.7096057846317
 30
0.0
 10
104.2854895804441
 20
187.7756881698821
 30
0.0
 10
103.562679499661
 20
187.9698353559924
 30
0.0
 10
102.8837494066711
 20
188.2858833488495
 30
0.0
 10
102.2766736261129
 20
188.7121752087179
 30
0.0
 10
101.7569059713545
 20
189.235740618356
 30
0.0
 10
101.3348744928866
 20
189.846762207966
 30
0.0
 10
101.0237875211289
 20
190.5290920777357
 30
0.0
 10
100.8313944715905
 20
191.2552536442094
 30
0.0
 10
100.7923608983012
 20
191.7542814690265
 30
0.0
 10
100.7939949862
 20
192.0017212079
 30
0.0
 11
109.2770687001
 21
192.0017212079
 31
0.0
 11
109.2160802088
 21
191.2602788229
 31
0.0
 11
109.0232707695
 21
190.5345377614
 31
0.0
 11
108.7081434888
 21
189.8532285143
 31
0.0
 11
108.2856890834
 21
189.2471961906
 31
0.0
 11
107.7698427706
 21
188.7304444418999
 31
0.0
 11
107.1643599743
 21
188.3064987402
 31
0.0
 11
106.4820441891
 21
187.9892256223
 31
0.0
 11
105.7583445761
 21
187.7956929441999
 31
0.0
 11
105.026019731
 21
187.7314369397
 31
0.0
 11
104.2937916353
 21
187.7960778635
 31
0.0
 11
103.5705347473
 21
187.9900985362
 31
0.0
 11
102.8906274662
 21
188.3072618226
 31
0.0
 11
102.2884539591
 21
188.7305643731
 31
0.0
 11
101.7759208943
 21
189.2468783352
 31
0.0
 11
101.3559981937
 21
189.8541186572
 31
0.0
 11
101.0437174953
 21
190.5362595024
 31
0.0
 11
100.8532109262
 21
191.261751395
 31
0.0
 11
100.7939949862
 21
192.0017212079
 31
0.0
  0
LINE
  5
545
330
217
100
AcDbEntity
  8
0
  6
Continuous
 62
     7
100
AcDbLine
 10
96.9692997383
 20
166.8558105612
 30
0.0
 11
96.93469443659999
 21
168.0815360414
 31
0.0
  0
LINE
  5
546
330
217
100
AcDbEntity
  8
0
  6
Continuous
 62
     7
100
AcDbLine
 10
96.6913580669
 20
157.2903108441
 30
0.0
 11
96.4372596719
 21
157.0308105612
 31
0.0
  0
LINE
  5
547
330
217
100
AcDbEntity
  8
0
  6
Continuous
 62
     7
100
AcDbLine
 10
96.9692997383
 20
163.1058105612
 30
0.0
 11
96.93469443659999
 21
161.8800850809
 31
0.0
  0
SPLINE
  5
548
330
217
100
AcDbEntity
  8
0
  6
Continuous
 62
     7
100
AcDbSpline
210
0.0
220
0.0
230
1.0
 70
     8
 71
     3
 72
    10
 73
     6
 74
     4
 42
0.0000000001
 43
0.0000000001
 44
0.0000000001
 12
0.9132485994437956
 22
0.4074027437486717
 32
0.0
 13
0.923038377885785
 23
0.3847078800206445
 33
0.0
 40
0.0
 40
0.0
 40
0.0
 40
0.0
 40
1.313222172296934
 40
2.575357998446876
 40
3.78820230614232
 40
3.78820230614232
 40
3.78820230614232
 40
3.78820230614232
 10
80.7571450854
 20
161.6033114864
 30
0.0
 10
81.1569111886029
 20
161.7816482584484
 30
0.0
 10
81.94218736200092
 20
162.1284912248729
 30
0.0
 10
83.1013233683412
 20
162.6294238001571
 30
0.0
 10
83.86137987159893
 20
162.9502803070638
 30
0.0
 10
84.2345471524
 20
163.1058105612
 30
0.0
 11
80.7571450854
 21
161.6033114864
 31
0.0
 11
81.9584787672
 21
162.1337357117
 31
0.0
 11
83.1171204558
 21
162.6342717055
 31
0.0
 11
84.2345471524
 21
163.1058105612
 31
0.0
  0
SPLINE
  5
549
330
217
100
AcDbEntity
  8
0
  6
Continuous
 62
     7
100
AcDbSpline
210
0.0
220
0.0
230
1.0
 70
     8
 71
     3
 72
    10
 73
     6
 74
     4
 42
0.0000000001
 43
0.0000000001
 44
0.0000000001
 12
0.9132485994437956
 22
-0.4074027437486717
 32
0.0
 13
0.923038377885785
 23
-0.3847078800206445
 33
0.0
 40
0.0
 40
0.0
 40
0.0
 40
0.0
 40
1.313222172296934
 40
2.575357998446888
 40
3.788202306103446
 40
3.788202306103446
 40
3.788202306103446
 40
3.788202306103446
 10
80.7571450854
 20
168.3583096359
 30
0.0
 10
81.1569111886029
 20
168.1799728638515
 30
0.0
 10
81.94218736200621
 20
167.8331298974395
 30
0.0
 10
83.10132336831191
 20
167.3321973221068
 30
0.0
 10
83.8613798716109
 20
167.0113408153312
 30
0.0
 10
84.2345471524
 20
166.8558105612
 30
0.0
 11
80.7571450854
 21
168.3583096359
 31
0.0
 11
81.9584787672
 21
167.8278854106
 31
0.0
 11
83.1171204558
 21
167.3273494168
 31
0.0
 11
84.2345471524
 21
166.8558105612
 31
0.0
  0
SPLINE
  5
54A
330
217
100
AcDbEntity
  8
0
  6
Continuous
 62
     7
100
AcDbSpline
210
0.0
220
0.0
230
1.0
 70
     8
 71
     3
 72
    42
 73
    38
 74
    36
 42
0.0000000001
 43
0.0000000001
 44
0.0000000001
 12
-1.0
 22
0.0
 32
0.0
 13
1.0
 23
0.0
 33
0.0
 40
0.0
 40
0.0
 40
0.0
 40
0.0
 40
0.0760900551058173
 40
0.1455197471532977
 40
0.2088241335403809
 40
0.2665305708255571
 40
0.3191498151986404
 40
0.3673165132468883
 40
0.4117362825596122
 40
0.4525304498887663
 40
0.4897727676213727
 40
0.5237016965963024
 40
0.5546464753228751
 40
0.5829734813455343
 40
0.6090333350299279
 40
0.6331047969446212
 40
0.6552925278640273
 40
0.674979866937124
 40
0.6915417852386031
 40
0.7112353794349965
 40
0.7378850248571677
 40
0.7680305269998814
 40
0.8005113255924662
 40
0.8350440793561027
 40
0.8711675459892923
 40
0.9081520555835208
 40
0.945807857550454
 40
0.9846985002834001
 40
1.025450438969305
 40
1.068663798747167
 40
1.11492643841419
 40
1.164813944558661
 40
1.218886108526042
 40
1.277678784821962
 40
1.341689853356283
 40
1.411355566639553
 40
1.487026954365316
 40
1.487026954365316
 40
1.487026954365316
 40
1.487026954365316
 10
94.87450221160001
 20
214.4099682895
 30
0.0
 10
94.84913885989806
 20
214.4099682895
 30
0.0
 10
94.80063094353395
 20
214.4104130963826
 30
0.0
 10
94.73104556642757
 20
214.4123228225979
 30
0.0
 10
94.66762695197006
 20
214.4151928439113
 30
0.0
 10
94.60986171013002
 20
214.4188312175079
 30
0.0
 10
94.55720044772624
 20
214.4230962177157
 30
0.0
 10
94.50903425571921
 20
214.4278964629513
 30
0.0
 10
94.46488518712831
 20
214.4331731362502
 30
0.0
 10
94.42446379314487
 20
214.4388790271517
 30
0.0
 10
94.38763739828534
 20
214.4449633719801
 30
0.0
 10
94.35420830003705
 20
214.4514004885198
 30
0.0
 10
94.32389180222637
 20
214.4582139907778
 30
0.0
 10
94.29638213703512
 20
214.4654743129923
 30
0.0
 10
94.27143111231936
 20
214.4733586942189
 30
0.0
 10
94.2489275304521
 20
214.4820430569065
 30
0.0
 10
94.22930094291201
 20
214.4921622414987
 30
0.0
 10
94.21348772260442
 20
214.5034668188296
 30
0.0
 10
94.20367177625129
 20
214.5218149852284
 30
0.0
 10
94.21661540212021
 20
214.5418820386369
 30
0.0
 10
94.23867030699767
 20
214.5543106724587
 30
0.0
 10
94.26626435999601
 20
214.5658349697767
 30
0.0
 10
94.29725922023989
 20
214.5752500427819
 30
0.0
 10
94.33064517037541
 20
214.583518145121
 30
0.0
 10
94.36580060920698
 20
214.5907242245543
 30
0.0
 10
94.40217682780986
 20
214.5970698617826
 30
0.0
 10
94.4396029012435
 20
214.6026948130367
 30
0.0
 10
94.47837545446496
 20
214.6077563509027
 30
0.0
 10
94.51906776532942
 20
214.6123757755643
 30
0.0
 10
94.56227023741051
 20
214.6166236010809
 30
0.0
 10
94.60856177785515
 20
214.6205278817209
 30
0.0
 10
94.65851096014082
 20
214.6240820812266
 30
0.0
 10
94.71267071888995
 20
214.6272477572349
 30
0.0
 10
94.7715687035893
 20
214.6299545428238
 30
0.0
 10
94.83569112275558
 20
214.632097573794
 30
0.0
 10
94.90546097327205
 20
214.6335323144555
 30
0.0
 10
94.95390738339141
 20
214.6338735219
 30
0.0
 10
94.9791311793
 20
214.6338735219
 30
0.0
 11
94.87450221160001
 21
214.4099682895
 31
0.0
 11
94.7984154449
 21
214.4106756926
 31
0.0
 11
94.72901225959999
 21
214.4125940273
 31
0.0
 11
94.6657733303
 21
214.4154720747
 31
0.0
 11
94.60818215639999
 21
214.4191175641
 31
0.0
 11
94.5557362381
 21
214.4233849441
 31
0.0
 11
94.5078091392
 21
214.4281832763
 31
0.0
 11
94.46370623139999
 21
214.4334794475
 31
0.0
 11
94.4233165279
 21
214.4392097127
 31
0.0
 11
94.38657770090001
 21
214.4453128939
 31
0.0
 11
94.35326834280001
 21
214.4517672633
 31
0.0
 11
94.32308708389999
 21
214.4585988767
 31
0.0
 11
94.29571570030001
 21
214.465894535
 31
0.0
 11
94.27089150429999
 21
214.4738239276
 31
0.0
 11
94.2485111841
 21
214.4826871407
 31
0.0
 11
94.2288743379
 21
214.4930162101
 31
0.0
 11
94.21365923939999
 21
214.5055098924
 31
0.0
 11
94.2071055159
 21
214.5207199498
 31
0.0
 11
94.21587517309999
 21
214.5383531788
 31
0.0
 11
94.2379217188
 21
214.553324933
 31
0.0
 11
94.26568655879998
 21
214.565066524
 31
0.0
 11
94.29667850959999
 21
214.5747877
 31
0.0
 11
94.33017910910001
 21
214.5831674921
 31
0.0
 11
94.36555174950001
 21
214.5904942344
 31
0.0
 11
94.40197913969999
 21
214.5968894821
 31
0.0
 11
94.43921233679999
 21
214.6025151781
 31
0.0
 11
94.47777299770001
 21
214.607570623
 31
0.0
 11
94.5182628841
 21
214.6121846891
 31
0.0
 11
94.561267398
 21
214.616428066
 31
0.0
 11
94.60736524579999
 21
214.6203293808
 31
0.0
 11
94.65712607280002
 21
214.6238823184
 31
0.0
 11
94.71110546
 21
214.6270484949
 31
0.0
 11
94.7698356987
 21
214.6297573412
 31
0.0
 11
94.8338107826
 21
214.6319033922
 31
0.0
 11
94.90346166749999
 21
214.6333406952
 31
0.0
 11
94.9791311793
 21
214.6338735219
 31
0.0
  0
ELLIPSE
  5
54B
330
217
100
AcDbEntity
  8
0
  6
Continuous
 62
     7
100
AcDbEllipse
 10
105.4044761839
 20
207.6108105612
 30
0.0
 11
16.9979027522
 21
-17.0
 31
0.0
210
0.0
220
0.0
230
1.0
 40
0.0111074357
 41
-1.961228645699999
 42
-1.9485393258
  0
ELLIPSE
  5
54C
330
217
100
AcDbEntity
  8
0
  6
Continuous
 62
     7
100
AcDbEllipse
 10
112.4794533601
 20
158.0308105612
 30
0.0
 11
-0.4999383161999999
 21
0.5
 31
0.0
210
0.0
220
0.0
230
1.0
 40
0.0111074357
 41
-2.690607163299999
 42
-2.5370984324
  0
ELLIPSE
  5
54D
330
217
100
AcDbEntity
  8
0
  6
Continuous
 62
     7
100
AcDbEllipse
 10
112.4794533601
 20
158.0308105612
 30
0.0
 11
-0.4999383161999999
 21
0.5
 31
0.0
210
0.0
220
0.0
230
1.0
 40
0.0111074357
 41
-2.5370984324
 42
-1.5707963268
  0
ELLIPSE
  5
54E
330
217
100
AcDbEntity
  8
0
  6
Continuous
 62
     7
100
AcDbEllipse
 10
105.4044761839
 20
207.6108105612
 30
0.0
 11
-16.9979027522
 21
17.0
 31
0.0
210
0.0
220
0.0
230
1.0
 40
0.0111074357
 41
-1.193053327799999
 42
-1.180364007799999
  0
ELLIPSE
  5
54F
330
217
100
AcDbEntity
  8
0
  6
Continuous
 62
     7
100
AcDbEllipse
 10
97.48130387290002
 20
158.0308105612
 30
0.0
 11
0.4999383161999999
 21
0.5
 31
0.0
210
0.0
220
0.0
230
1.0
 40
0.0111074357
 41
1.5707963268
 42
3.1415926536
  0
ENDSEC
  0
SECTION
  2
OBJECTS
  0
DICTIONARY
  5
C
330
0
100
AcDbDictionary
281
     1
  3
ACAD_COLOR
350
581
  3
ACAD_GROUP
350
D
  3
ACAD_LAYOUT
350
1A
  3
ACAD_MATERIAL
350
554
  3
ACAD_MLEADERSTYLE
350
596
  3
ACAD_MLINESTYLE
350
17
  3
ACAD_PLOTSETTINGS
350
19
  3
ACAD_PLOTSTYLENAME
350
E
  3
ACAD_SCALELIST
350
584
  3
ACAD_TABLESTYLE
350
582
  3
ACAD_VISUALSTYLE
350
56D
  3
ACDB_RECOMPOSE_DATA
350
5D6
  3
AcDbVariableDictionary
350
5CF
  0
DICTIONARY
  5
59B
330
10
100
AcDbDictionary
280
     1
281
     1
  3
ADSK_XREC_LAYER_RECONCILED
360
59C
  0
DICTIONARY
  5
59D
330
1FA
100
AcDbDictionary
280
     1
281
     1
  3
ADSK_XREC_LAYER_RECONCILED
360
59E
  0
DICTIONARY
  5
59F
330
1FB
100
AcDbDictionary
280
     1
281
     1
  3
ADSK_XREC_LAYER_RECONCILED
360
5A0
  0
DICTIONARY
  5
5A1
330
1FC
100
AcDbDictionary
280
     1
281
     1
  3
ADSK_XREC_LAYER_RECONCILED
360
5A2
  0
DICTIONARY
  5
5A3
330
1FD
100
AcDbDictionary
280
     1
281
     1
  3
ADSK_XREC_LAYER_RECONCILED
360
5A4
  0
DICTIONARY
  5
5A5
330
1FE
100
AcDbDictionary
280
     1
281
     1
  3
ADSK_XREC_LAYER_RECONCILED
360
5A6
  0
DICTIONARY
  5
5A7
330
1FF
100
AcDbDictionary
280
     1
281
     1
  3
ADSK_XREC_LAYER_RECONCILED
360
5A8
  0
DICTIONARY
  5
5A9
330
200
100
AcDbDictionary
280
     1
281
     1
  3
ADSK_XREC_LAYER_RECONCILED
360
5AA
  0
DICTIONARY
  5
5AB
330
201
100
AcDbDictionary
280
     1
281
     1
  3
ADSK_XREC_LAYER_RECONCILED
360
5AC
  0
DICTIONARY
  5
5AD
330
202
100
AcDbDictionary
280
     1
281
     1
  3
ADSK_XREC_LAYER_RECONCILED
360
5AE
  0
DICTIONARY
  5
5AF
330
203
100
AcDbDictionary
280
     1
281
     1
  3
ADSK_XREC_LAYER_RECONCILED
360
5B0
  0
DICTIONARY
  5
5B1
330
204
100
AcDbDictionary
280
     1
281
     1
  3
ADSK_XREC_LAYER_RECONCILED
360
5B2
  0
DICTIONARY
  5
5B3
330
205
100
AcDbDictionary
280
     1
281
     1
  3
ADSK_XREC_LAYER_RECONCILED
360
5B4
  0
DICTIONARY
  5
5B5
330
206
100
AcDbDictionary
280
     1
281
     1
  3
ADSK_XREC_LAYER_RECONCILED
360
5B6
  0
DICTIONARY
  5
5B7
330
207
100
AcDbDictionary
280
     1
281
     1
  3
ADSK_XREC_LAYER_RECONCILED
360
5B8
  0
DICTIONARY
  5
5B9
330
208
100
AcDbDictionary
280
     1
281
     1
  3
ADSK_XREC_LAYER_RECONCILED
360
5BA
  0
DICTIONARY
  5
5BB
330
209
100
AcDbDictionary
280
     1
281
     1
  3
ADSK_XREC_LAYER_RECONCILED
360
5BC
  0
DICTIONARY
  5
5BD
330
20A
100
AcDbDictionary
280
     1
281
     1
  3
ADSK_XREC_LAYER_RECONCILED
360
5BE
  0
DICTIONARY
  5
5BF
330
20B
100
AcDbDictionary
280
     1
281
     1
  3
ADSK_XREC_LAYER_RECONCILED
360
5C0
  0
DICTIONARY
  5
5C1
330
20C
100
AcDbDictionary
280
     1
281
     1
  3
ADSK_XREC_LAYER_RECONCILED
360
5C2
  0
DICTIONARY
  5
5C3
330
20D
100
AcDbDictionary
280
     1
281
     1
  3
ADSK_XREC_LAYER_RECONCILED
360
5C4
  0
DICTIONARY
  5
5C5
330
20E
100
AcDbDictionary
280
     1
281
     1
  3
ADSK_XREC_LAYER_RECONCILED
360
5C6
  0
DICTIONARY
  5
5C7
330
20F
100
AcDbDictionary
280
     1
281
     1
  3
ADSK_XREC_LAYER_RECONCILED
360
5C8
  0
DICTIONARY
  5
5C9
330
210
100
AcDbDictionary
280
     1
281
     1
  3
ADSK_XREC_LAYER_RECONCILED
360
5CA
  0
DICTIONARY
  5
5CB
330
211
100
AcDbDictionary
280
     1
281
     1
  3
ADSK_XREC_LAYER_RECONCILED
360
5CC
  0
DICTIONARY
  5
5CD
330
212
100
AcDbDictionary
280
     1
281
     1
  3
ADSK_XREC_LAYER_RECONCILED
360
5CE
  0
DICTIONARY
  5
581
102
{ACAD_REACTORS
330
C
102
}
330
C
100
AcDbDictionary
281
     1
  0
DICTIONARY
  5
D
102
{ACAD_REACTORS
330
C
102
}
330
C
100
AcDbDictionary
281
     1
  0
DICTIONARY
  5
1A
102
{ACAD_REACTORS
330
C
102
}
330
C
100
AcDbDictionary
281
     1
  3
Layout1
350
551
  3
Model
350
550
  0
DICTIONARY
  5
554
102
{ACAD_REACTORS
330
C
102
}
330
C
100
AcDbDictionary
281
     1
  3
ByBlock
350
55D
  3
ByLayer
350
555
  3
Global
350
565
  0
DICTIONARY
  5
596
102
{ACAD_REACTORS
330
C
102
}
330
C
100
AcDbDictionary
281
     1
  3
Standard
350
597
  0
DICTIONARY
  5
17
102
{ACAD_REACTORS
330
C
102
}
330
C
100
AcDbDictionary
281
     1
  3
Standard
350
18
  0
DICTIONARY
  5
19
102
{ACAD_REACTORS
330
C
102
}
330
C
100
AcDbDictionary
281
     1
  0
ACDBDICTIONARYWDFLT
  5
E
102
{ACAD_REACTORS
330
C
102
}
330
C
100
AcDbDictionary
281
     1
  3
Normal
350
F
100
AcDbDictionaryWithDefault
340
F
  0
DICTIONARY
  5
584
102
{ACAD_REACTORS
330
C
102
}
330
C
100
AcDbDictionary
281
     1
  3
A0
350
585
  3
A1
350
586
  3
A2
350
587
  3
A3
350
588
  3
A4
350
589
  3
A5
350
58A
  3
A6
350
58B
  3
A7
350
58C
  3
A8
350
58D
  3
A9
350
58E
  3
B0
350
58F
  3
B1
350
590
  3
B2
350
591
  3
B3
350
592
  3
B4
350
593
  3
B5
350
594
  3
B6
350
595
  0
DICTIONARY
  5
582
102
{ACAD_REACTORS
330
C
102
}
330
C
100
AcDbDictionary
281
     1
  3
Standard
350
583
  0
DICTIONARY
  5
56D
102
{ACAD_REACTORS
330
C
102
}
330
C
100
AcDbDictionary
281
     1
  3
2dWireframe
350
573
  3
3D Hidden
350
575
  3
3dWireframe
350
574
  3
Basic
350
572
  3
Brighten
350
579
  3
ColorChange
350
57D
  3
Conceptual
350
576
  3
Dim
350
578
  3
EdgeColorOff
350
580
  3
Facepattern
350
57C
  3
Flat
350
56E
  3
FlatWithEdges
350
56F
  3
Gouraud
350
570
  3
GouraudWithEdges
350
571
  3
JitterOff
350
57E
  3
Linepattern
350
57B
  3
OverhangOff
350
57F
  3
Realistic
350
577
  3
Thicken
350
57A
  0
XRECORD
  5
5D6
102
{ACAD_REACTORS
330
C
102
}
330
C
100
AcDbXrecord
280
     1
 90
        1
330
583
  0
DICTIONARY
  5
5CF
102
{ACAD_REACTORS
330
C
102
}
330
C
100
AcDbDictionary
281
     1
  3
CANNOSCALE
350
5D2
  3
CMLEADERSTYLE
350
5D1
  3
CTABLESTYLE
350
5D0
  3
XCLIPFRAME
350
5D3
  0
XRECORD
  5
59C
102
{ACAD_REACTORS
330
59B
102
}
330
59B
100
AcDbXrecord
280
     1
290
     1
  0
XRECORD
  5
59E
102
{ACAD_REACTORS
330
59D
102
}
330
59D
100
AcDbXrecord
280
     1
290
     1
  0
XRECORD
  5
5A0
102
{ACAD_REACTORS
330
59F
102
}
330
59F
100
AcDbXrecord
280
     1
290
     1
  0
XRECORD
  5
5A2
102
{ACAD_REACTORS
330
5A1
102
}
330
5A1
100
AcDbXrecord
280
     1
290
     1
  0
XRECORD
  5
5A4
102
{ACAD_REACTORS
330
5A3
102
}
330
5A3
100
AcDbXrecord
280
     1
290
     1
  0
XRECORD
  5
5A6
102
{ACAD_REACTORS
330
5A5
102
}
330
5A5
100
AcDbXrecord
280
     1
290
     1
  0
XRECORD
  5
5A8
102
{ACAD_REACTORS
330
5A7
102
}
330
5A7
100
AcDbXrecord
280
     1
290
     1
  0
XRECORD
  5
5AA
102
{ACAD_REACTORS
330
5A9
102
}
330
5A9
100
AcDbXrecord
280
     1
290
     1
  0
XRECORD
  5
5AC
102
{ACAD_REACTORS
330
5AB
102
}
330
5AB
100
AcDbXrecord
280
     1
290
     1
  0
XRECORD
  5
5AE
102
{ACAD_REACTORS
330
5AD
102
}
330
5AD
100
AcDbXrecord
280
     1
290
     1
  0
XRECORD
  5
5B0
102
{ACAD_REACTORS
330
5AF
102
}
330
5AF
100
AcDbXrecord
280
     1
290
     1
  0
XRECORD
  5
5B2
102
{ACAD_REACTORS
330
5B1
102
}
330
5B1
100
AcDbXrecord
280
     1
290
     1
  0
XRECORD
  5
5B4
102
{ACAD_REACTORS
330
5B3
102
}
330
5B3
100
AcDbXrecord
280
     1
290
     1
  0
XRECORD
  5
5B6
102
{ACAD_REACTORS
330
5B5
102
}
330
5B5
100
AcDbXrecord
280
     1
290
     1
  0
XRECORD
  5
5B8
102
{ACAD_REACTORS
330
5B7
102
}
330
5B7
100
AcDbXrecord
280
     1
290
     1
  0
XRECORD
  5
5BA
102
{ACAD_REACTORS
330
5B9
102
}
330
5B9
100
AcDbXrecord
280
     1
290
     1
  0
XRECORD
  5
5BC
102
{ACAD_REACTORS
330
5BB
102
}
330
5BB
100
AcDbXrecord
280
     1
290
     1
  0
XRECORD
  5
5BE
102
{ACAD_REACTORS
330
5BD
102
}
330
5BD
100
AcDbXrecord
280
     1
290
     1
  0
XRECORD
  5
5C0
102
{ACAD_REACTORS
330
5BF
102
}
330
5BF
100
AcDbXrecord
280
     1
290
     1
  0
XRECORD
  5
5C2
102
{ACAD_REACTORS
330
5C1
102
}
330
5C1
100
AcDbXrecord
280
     1
290
     1
  0
XRECORD
  5
5C4
102
{ACAD_REACTORS
330
5C3
102
}
330
5C3
100
AcDbXrecord
280
     1
290
     1
  0
XRECORD
  5
5C6
102
{ACAD_REACTORS
330
5C5
102
}
330
5C5
100
AcDbXrecord
280
     1
290
     1
  0
XRECORD
  5
5C8
102
{ACAD_REACTORS
330
5C7
102
}
330
5C7
100
AcDbXrecord
280
     1
290
     1
  0
XRECORD
  5
5CA
102
{ACAD_REACTORS
330
5C9
102
}
330
5C9
100
AcDbXrecord
280
     1
290
     1
  0
XRECORD
  5
5CC
102
{ACAD_REACTORS
330
5CB
102
}
330
5CB
100
AcDbXrecord
280
     1
290
     1
  0
XRECORD
  5
5CE
102
{ACAD_REACTORS
330
5CD
102
}
330
5CD
100
AcDbXrecord
280
     1
290
     1
  0
LAYOUT
  5
551
102
{ACAD_REACTORS
330
1A
102
}
330
1A
100
AcDbPlotSettings
  1

  2
none_device
  4

  6

 40
0.0
 41
0.0
 42
0.0
 43
0.0
 44
210.0
 45
297.0
 46
0.0
 47
0.0
 48
0.0
 49
0.0
140
0.0
141
0.0
142
1.0
143
1.0
 70
     0
 72
     1
 73
     0
 74
     0
  7

 75
     0
147
1.0
 76
     0
 77
     2
 78
   300
148
0.0
149
0.0
100
AcDbLayout
  1
Layout1
 70
     1
 71
     1
 10
0.0
 20
0.0
 11
12.0
 21
9.0
 12
0.0
 22
0.0
 32
0.0
 14
1.000000000000000E+20
 24
1.000000000000000E+20
 34
1.000000000000000E+20
 15
-1.000000000000000E+20
 25
-1.000000000000000E+20
 35
-1.000000000000000E+20
146
0.0
 13
0.0
 23
0.0
 33
0.0
 16
1.0
 26
0.0
 36
0.0
 17
0.0
 27
1.0
 37
0.0
 76
     0
330
218
  0
LAYOUT
  5
550
102
{ACAD_REACTORS
330
1A
102
}
330
1A
100
AcDbPlotSettings
  1

  2
none_device
  4

  6

 40
0.0
 41
0.0
 42
0.0
 43
0.0
 44
210.0
 45
297.0
 46
0.0
 47
0.0
 48
0.0
 49
0.0
140
0.0
141
0.0
142
1.0
143
1.0
 70
  1024
 72
     1
 73
     0
 74
     0
  7

 75
     0
147
1.0
 76
     0
 77
     2
 78
   300
148
0.0
149
0.0
100
AcDbLayout
  1
Model
 70
     0
 71
     0
 10
0.0
 20
0.0
 11
210.0
 21
297.0
 12
0.0
 22
0.0
 32
0.0
 14
0.0
 24
0.0
 34
0.0
 15
0.0
 25
0.0
 35
0.0
146
0.0
 13
0.0
 23
0.0
 33
0.0
 16
1.0
 26
0.0
 36
0.0
 17
0.0
 27
1.0
 37
0.0
 76
     0
330
217
331
1F4
  0
MATERIAL
  5
55D
102
{ACAD_XDICTIONARY
360
55E
102
}
102
{ACAD_REACTORS
330
554
102
}
330
554
100
AcDbMaterial
  1
ByBlock
 72
     0
 43
0.0008202099737533
 43
0.0
 43
0.0
 43
0.0
 43
0.0
 43
0.0008202099737533
 43
0.0
 43
0.0
 43
0.0
 43
0.0
 43
1.0
 43
0.0
 43
0.0
 43
0.0
 43
0.0
 43
1.0
 77
     0
 47
0.0008202099737533
 47
0.0
 47
0.0
 47
0.0
 47
0.0
 47
0.0008202099737533
 47
0.0
 47
0.0
 47
0.0
 47
0.0
 47
1.0
 47
0.0
 47
0.0
 47
0.0
 47
0.0
 47
1.0
171
     0
 49
0.0008202099737533
 49
0.0
 49
0.0
 49
0.0
 49
0.0
 49
0.0008202099737533
 49
0.0
 49
0.0
 49
0.0
 49
0.0
 49
1.0
 49
0.0
 49
0.0
 49
0.0
 49
0.0
 49
1.0
175
     0
142
0.0008202099737533
142
0.0
142
0.0
142
0.0
142
0.0
142
0.0008202099737533
142
0.0
142
0.0
142
0.0
142
0.0
142
1.0
142
0.0
142
0.0
142
0.0
142
0.0
142
1.0
179
     0
144
0.0008202099737533
144
0.0
144
0.0
144
0.0
144
0.0
144
0.0008202099737533
144
0.0
144
0.0
144
0.0
144
0.0
144
1.0
144
0.0
144
0.0
144
0.0
144
0.0
144
1.0
147
0.0008202099737533
147
0.0
147
0.0
147
0.0
147
0.0
147
0.0008202099737533
147
0.0
147
0.0
147
0.0
147
0.0
147
1.0
147
0.0
147
0.0
147
0.0
147
0.0
147
1.0
  0
MATERIAL
  5
555
102
{ACAD_XDICTIONARY
360
556
102
}
102
{ACAD_REACTORS
330
554
102
}
330
554
100
AcDbMaterial
  1
ByLayer
 72
     0
 43
0.0008202099737533
 43
0.0
 43
0.0
 43
0.0
 43
0.0
 43
0.0008202099737533
 43
0.0
 43
0.0
 43
0.0
 43
0.0
 43
1.0
 43
0.0
 43
0.0
 43
0.0
 43
0.0
 43
1.0
 77
     0
 47
0.0008202099737533
 47
0.0
 47
0.0
 47
0.0
 47
0.0
 47
0.0008202099737533
 47
0.0
 47
0.0
 47
0.0
 47
0.0
 47
1.0
 47
0.0
 47
0.0
 47
0.0
 47
0.0
 47
1.0
171
     0
 49
0.0008202099737533
 49
0.0
 49
0.0
 49
0.0
 49
0.0
 49
0.0008202099737533
 49
0.0
 49
0.0
 49
0.0
 49
0.0
 49
1.0
 49
0.0
 49
0.0
 49
0.0
 49
0.0
 49
1.0
175
     0
142
0.0008202099737533
142
0.0
142
0.0
142
0.0
142
0.0
142
0.0008202099737533
142
0.0
142
0.0
142
0.0
142
0.0
142
1.0
142
0.0
142
0.0
142
0.0
142
0.0
142
1.0
179
     0
144
0.0008202099737533
144
0.0
144
0.0
144
0.0
144
0.0
144
0.0008202099737533
144
0.0
144
0.0
144
0.0
144
0.0
144
1.0
144
0.0
144
0.0
144
0.0
144
0.0
144
1.0
147
0.0008202099737533
147
0.0
147
0.0
147
0.0
147
0.0
147
0.0008202099737533
147
0.0
147
0.0
147
0.0
147
0.0
147
1.0
147
0.0
147
0.0
147
0.0
147
0.0
147
1.0
  0
MATERIAL
  5
565
102
{ACAD_XDICTIONARY
360
566
102
}
102
{ACAD_REACTORS
330
554
102
}
330
554
100
AcDbMaterial
  1
Global
 72
     0
 43
0.0008202099737533
 43
0.0
 43
0.0
 43
0.0
 43
0.0
 43
0.0008202099737533
 43
0.0
 43
0.0
 43
0.0
 43
0.0
 43
1.0
 43
0.0
 43
0.0
 43
0.0
 43
0.0
 43
1.0
 77
     0
 47
0.0008202099737533
 47
0.0
 47
0.0
 47
0.0
 47
0.0
 47
0.0008202099737533
 47
0.0
 47
0.0
 47
0.0
 47
0.0
 47
1.0
 47
0.0
 47
0.0
 47
0.0
 47
0.0
 47
1.0
171
     0
 49
0.0008202099737533
 49
0.0
 49
0.0
 49
0.0
 49
0.0
 49
0.0008202099737533
 49
0.0
 49
0.0
 49
0.0
 49
0.0
 49
1.0
 49
0.0
 49
0.0
 49
0.0
 49
0.0
 49
1.0
175
     0
142
0.0008202099737533
142
0.0
142
0.0
142
0.0
142
0.0
142
0.0008202099737533
142
0.0
142
0.0
142
0.0
142
0.0
142
1.0
142
0.0
142
0.0
142
0.0
142
0.0
142
1.0
179
     0
144
0.0008202099737533
144
0.0
144
0.0
144
0.0
144
0.0
144
0.0008202099737533
144
0.0
144
0.0
144
0.0
144
0.0
144
1.0
144
0.0
144
0.0
144
0.0
144
0.0
144
1.0
147
0.0008202099737533
147
0.0
147
0.0
147
0.0
147
0.0
147
0.0008202099737533
147
0.0
147
0.0
147
0.0
147
0.0
147
1.0
147
0.0
147
0.0
147
0.0
147
0.0
147
1.0
  0
MLEADERSTYLE
  5
597
102
{ACAD_REACTORS
330
596
102
}
330
596
100
AcDbMLeaderStyle
170
     2
171
     1
172
     0
 90
        2
 40
0.0
 41
0.0
173
     1
 91
-1056964608
340
14
 92
       -2
290
     1
 42
2.0
291
     1
 43
0.36
  3
Standard
 44
4.0
300

342
11
174
     1
178
     6
175
     1
176
     0
 93
-1056964608
 45
4.0
292
     0
297
     0
 46
4.0
 94
-1056964608
 47
1.0
 49
1.0
140
1.0
293
     1
141
0.0
294
     1
177
     0
142
1.0
295
     0
296
     0
143
0.125
1001
ACAD_MLEADERVER
1070
     2
  0
MLINESTYLE
  5
18
102
{ACAD_REACTORS
330
17
102
}
330
17
100
AcDbMlineStyle
  2
STANDARD
 70
     0
  3

 62
   256
 51
90.0
 52
90.0
 71
     2
 49
0.5
 62
   256
  6
BYLAYER
 49
-0.5
 62
   256
  6
BYLAYER
  0
ACDBPLACEHOLDER
  5
F
102
{ACAD_REACTORS
330
E
102
}
330
E
  0
SCALE
  5
585
102
{ACAD_REACTORS
330
584
102
}
330
584
100
AcDbScale
 70
     0
300
1:1
140
1.0
141
1.0
290
     1
  0
SCALE
  5
586
102
{ACAD_REACTORS
330
584
102
}
330
584
100
AcDbScale
 70
     0
300
1:2
140
1.0
141
2.0
290
     0
  0
SCALE
  5
587
102
{ACAD_REACTORS
330
584
102
}
330
584
100
AcDbScale
 70
     0
300
1:4
140
1.0
141
4.0
290
     0
  0
SCALE
  5
588
102
{ACAD_REACTORS
330
584
102
}
330
584
100
AcDbScale
 70
     0
300
1:5
140
1.0
141
5.0
290
     0
  0
SCALE
  5
589
102
{ACAD_REACTORS
330
584
102
}
330
584
100
AcDbScale
 70
     0
300
1:8
140
1.0
141
8.0
290
     0
  0
SCALE
  5
58A
102
{ACAD_REACTORS
330
584
102
}
330
584
100
AcDbScale
 70
     0
300
1:10
140
1.0
141
10.0
290
     0
  0
SCALE
  5
58B
102
{ACAD_REACTORS
330
584
102
}
330
584
100
AcDbScale
 70
     0
300
1:16
140
1.0
141
16.0
290
     0
  0
SCALE
  5
58C
102
{ACAD_REACTORS
330
584
102
}
330
584
100
AcDbScale
 70
     0
300
1:20
140
1.0
141
20.0
290
     0
  0
SCALE
  5
58D
102
{ACAD_REACTORS
330
584
102
}
330
584
100
AcDbScale
 70
     0
300
1:30
140
1.0
141
30.0
290
     0
  0
SCALE
  5
58E
102
{ACAD_REACTORS
330
584
102
}
330
584
100
AcDbScale
 70
     0
300
1:40
140
1.0
141
40.0
290
     0
  0
SCALE
  5
58F
102
{ACAD_REACTORS
330
584
102
}
330
584
100
AcDbScale
 70
     0
300
1:50
140
1.0
141
50.0
290
     0
  0
SCALE
  5
590
102
{ACAD_REACTORS
330
584
102
}
330
584
100
AcDbScale
 70
     0
300
1:100
140
1.0
141
100.0
290
     0
  0
SCALE
  5
591
102
{ACAD_REACTORS
330
584
102
}
330
584
100
AcDbScale
 70
     0
300
2:1
140
2.0
141
1.0
290
     0
  0
SCALE
  5
592
102
{ACAD_REACTORS
330
584
102
}
330
584
100
AcDbScale
 70
     0
300
4:1
140
4.0
141
1.0
290
     0
  0
SCALE
  5
593
102
{ACAD_REACTORS
330
584
102
}
330
584
100
AcDbScale
 70
     0
300
8:1
140
8.0
141
1.0
290
     0
  0
SCALE
  5
594
102
{ACAD_REACTORS
330
584
102
}
330
584
100
AcDbScale
 70
     0
300
10:1
140
10.0
141
1.0
290
     0
  0
SCALE
  5
595
102
{ACAD_REACTORS
330
584
102
}
330
584
100
AcDbScale
 70
     0
300
100:1
140
100.0
141
1.0
290
     0
  0
TABLESTYLE
  5
583
102
{ACAD_XDICTIONARY
360
5D4
102
}
102
{ACAD_REACTORS
330
582
102
}
330
582
100
AcDbTableStyle
  3
Standard
 70
     0
 71
     0
 40
1.5
 41
1.5
280
     0
281
     0
  7
STANDARD
140
4.5
170
     2
 62
     0
 63
     7
283
     0
274
    -2
284
     1
 64
     0
275
    -2
285
     1
 65
     0
276
    -2
286
     1
 66
     0
277
    -2
287
     1
 67
     0
278
    -2
288
     1
 68
     0
279
    -2
289
     1
 69
     0
  7
STANDARD
140
6.0
170
     5
 62
     0
 63
     7
283
     0
274
    -2
284
     1
 64
     0
275
    -2
285
     1
 65
     0
276
    -2
286
     1
 66
     0
277
    -2
287
     1
 67
     0
278
    -2
288
     1
 68
     0
279
    -2
289
     1
 69
     0
  7
STANDARD
140
4.5
170
     5
 62
     0
 63
     7
283
     0
274
    -2
284
     1
 64
     0
275
    -2
285
     1
 65
     0
276
    -2
286
     1
 66
     0
277
    -2
287
     1
 67
     0
278
    -2
288
     1
 68
     0
279
    -2
289
     1
 69
     0
  0
VISUALSTYLE
  5
573
102
{ACAD_XDICTIONARY
360
5E4
102
}
102
{ACAD_REACTORS
330
56D
102
}
330
56D
100
AcDbVisualStyle
  2
2dWireframe
 70
     4
 71
     0
 72
     2
 73
     0
 90
        0
 40
-0.6
 41
-30.0
 62
     5
 63
     7
421
 16777215
 74
     1
 91
        4
 64
     7
 65
   257
 75
     1
175
     1
 42
1.0
 92
        0
 66
   257
 43
1.0
 76
     1
 77
     6
 78
     2
 67
     7
 79
     5
170
     0
171
     0
290
     0
174
     0
 93
        1
 44
0.0
173
     0
291
     0
 45
0.0
1001
ACAD
1000
AcDbSavedByObjectVersion
1070
     0
  0
VISUALSTYLE
  5
575
102
{ACAD_XDICTIONARY
360
5E8
102
}
102
{ACAD_REACTORS
330
56D
102
}
330
56D
100
AcDbVisualStyle
  2
3D Hidden
 70
     6
 71
     1
 72
     2
 73
     2
 90
        0
 40
-0.6
 41
-30.0
 62
     5
 63
     7
421
 16777215
 74
     2
 91
        2
 64
     7
 65
   257
 75
     2
175
     1
 42
179.0
 92
        0
 66
   257
 43
1.0
 76
     1
 77
     6
 78
     2
 67
     7
 79
     3
170
     0
171
     0
290
     0
174
     0
 93
        1
 44
0.0
173
     0
291
     0
 45
0.0
1001
ACAD
1000
AcDbSavedByObjectVersion
1070
     0
  0
VISUALSTYLE
  5
574
102
{ACAD_XDICTIONARY
360
5E6
102
}
102
{ACAD_REACTORS
330
56D
102
}
330
56D
100
AcDbVisualStyle
  2
3dWireframe
 70
     5
 71
     0
 72
     2
 73
     0
 90
        0
 40
-0.6
 41
-30.0
 62
     5
 63
     7
421
 16777215
 74
     1
 91
        4
 64
     7
 65
   257
 75
     1
175
     1
 42
1.0
 92
        0
 66
   257
 43
1.0
 76
     1
 77
     6
 78
     2
 67
     7
 79
     5
170
     0
171
     0
290
     0
174
     0
 93
        1
 44
0.0
173
     0
291
     0
 45
0.0
1001
ACAD
1000
AcDbSavedByObjectVersion
1070
     0
  0
VISUALSTYLE
  5
572
102
{ACAD_XDICTIONARY
360
5E2
102
}
102
{ACAD_REACTORS
330
56D
102
}
330
56D
100
AcDbVisualStyle
  2
Basic
 70
     7
 71
     1
 72
     0
 73
     1
 90
        0
 40
-0.6
 41
-30.0
 62
     5
 63
     7
421
 16777215
 74
     0
 91
        4
 64
     7
 65
   257
 75
     1
175
     1
 42
1.0
 92
        8
 66
     7
 43
1.0
 76
     1
 77
     6
 78
     2
 67
     7
 79
     5
170
     0
171
     0
290
     0
174
     0
 93
        1
 44
0.0
173
     0
291
     1
 45
0.0
1001
ACAD
1000
AcDbSavedByObjectVersion
1070
     0
  0
VISUALSTYLE
  5
579
102
{ACAD_XDICTIONARY
360
5F0
102
}
102
{ACAD_REACTORS
330
56D
102
}
330
56D
100
AcDbVisualStyle
  2
Brighten
 70
    12
 71
     2
 72
     2
 73
     0
 90
        0
 40
-0.6
 41
-30.0
 62
     5
 63
     7
421
 16777215
 74
     1
 91
        4
 64
     7
 65
   257
 75
     1
175
     1
 42
1.0
 92
        8
 66
     7
 43
1.0
 76
     1
 77
     6
 78
     2
 67
     7
 79
     5
170
     0
171
     0
290
     0
174
     0
 93
        1
 44
50.0
173
     0
291
     1
 45
0.0
1001
ACAD
1000
AcDbSavedByObjectVersion
1070
     0
  0
VISUALSTYLE
  5
57D
102
{ACAD_XDICTIONARY
360
5F8
102
}
102
{ACAD_REACTORS
330
56D
102
}
330
56D
100
AcDbVisualStyle
  2
ColorChange
 70
    16
 71
     2
 72
     2
 73
     3
 90
        0
 40
-0.6
 41
-30.0
 62
     5
 63
     8
421
  8421504
 74
     1
 91
        4
 64
     7
 65
   257
 75
     1
175
     1
 42
1.0
 92
        8
 66
     8
424
  8421504
 43
1.0
 76
     1
 77
     6
 78
     2
 67
     7
 79
     5
170
     0
171
     0
290
     0
174
     0
 93
        1
 44
0.0
173
     0
291
     1
 45
0.0
1001
ACAD
1000
AcDbSavedByObjectVersion
1070
     0
  0
VISUALSTYLE
  5
576
102
{ACAD_XDICTIONARY
360
5EA
102
}
102
{ACAD_REACTORS
330
56D
102
}
330
56D
100
AcDbVisualStyle
  2
Conceptual
 70
     9
 71
     3
 72
     2
 73
     0
 90
        0
 40
-0.6
 41
-30.0
 62
     5
 63
     7
421
 16777215
 74
     2
 91
        2
 64
     7
 65
   257
 75
     1
175
     1
 42
179.0
 92
        8
 66
     7
 43
1.0
 76
     1
 77
     6
 78
     2
 67
     7
 79
     3
170
     0
171
     0
290
     0
174
     0
 93
        1
 44
0.0
173
     0
291
     0
 45
0.0
1001
ACAD
1000
AcDbSavedByObjectVersion
1070
     0
  0
VISUALSTYLE
  5
578
102
{ACAD_XDICTIONARY
360
5EE
102
}
102
{ACAD_REACTORS
330
56D
102
}
330
56D
100
AcDbVisualStyle
  2
Dim
 70
    11
 71
     2
 72
     2
 73
     0
 90
        0
 40
-0.6
 41
-30.0
 62
     5
 63
     7
421
 16777215
 74
     1
 91
        4
 64
     7
 65
   257
 75
     1
175
     1
 42
1.0
 92
        8
 66
     7
 43
1.0
 76
     1
 77
     6
 78
     2
 67
     7
 79
     5
170
     0
171
     0
290
     0
174
     0
 93
        1
 44
-50.0
173
     0
291
     1
 45
0.0
1001
ACAD
1000
AcDbSavedByObjectVersion
1070
     0
  0
VISUALSTYLE
  5
580
102
{ACAD_XDICTIONARY
360
5FE
102
}
102
{ACAD_REACTORS
330
56D
102
}
330
56D
100
AcDbVisualStyle
  2
EdgeColorOff
 70
    22
 71
     2
 72
     2
 73
     0
 90
        0
 40
-0.6
 41
-30.0
 62
     5
 63
     7
421
 16777215
 74
     1
 91
        4
 64
     7
 65
   257
 75
     1
175
     1
 42
1.0
 92
        8
 66
     7
 43
1.0
 76
     1
 77
     6
 78
     2
 67
     7
 79
     5
170
     0
171
     0
290
     0
174
     0
 93
        1
 44
0.0
173
     0
291
     1
 45
0.0
1001
ACAD
1000
AcDbSavedByObjectVersion
1070
     0
  0
VISUALSTYLE
  5
57C
102
{ACAD_XDICTIONARY
360
5F6
102
}
102
{ACAD_REACTORS
330
56D
102
}
330
56D
100
AcDbVisualStyle
  2
Facepattern
 70
    15
 71
     2
 72
     2
 73
     0
 90
        0
 40
-0.6
 41
-30.0
 62
     5
 63
     7
421
 16777215
 74
     1
 91
        4
 64
     7
 65
   257
 75
     1
175
     1
 42
1.0
 92
        8
 66
     7
 43
1.0
 76
     1
 77
     6
 78
     2
 67
     7
 79
     5
170
     0
171
     0
290
     0
174
     0
 93
        1
 44
0.0
173
     0
291
     1
 45
0.0
1001
ACAD
1000
AcDbSavedByObjectVersion
1070
     0
  0
VISUALSTYLE
  5
56E
102
{ACAD_XDICTIONARY
360
5DA
102
}
102
{ACAD_REACTORS
330
56D
102
}
330
56D
100
AcDbVisualStyle
  2
Flat
 70
     0
 71
     2
 72
     1
 73
     1
 90
        2
 40
-0.6
 41
30.0
 62
     5
 63
     7
421
 16777215
 74
     0
 91
        4
 64
     7
 65
   257
 75
     1
175
     1
 42
1.0
 92
        8
 66
     7
 43
1.0
 76
     1
 77
     6
 78
     2
 67
     7
 79
     5
170
     0
171
     0
290
     0
174
     0
 93
       13
 44
0.0
173
     0
291
     1
 45
0.0
1001
ACAD
1000
AcDbSavedByObjectVersion
1070
     0
  0
VISUALSTYLE
  5
56F
102
{ACAD_XDICTIONARY
360
5DC
102
}
102
{ACAD_REACTORS
330
56D
102
}
330
56D
100
AcDbVisualStyle
  2
FlatWithEdges
 70
     1
 71
     2
 72
     1
 73
     1
 90
        2
 40
-0.6
 41
30.0
 62
     5
 63
     7
421
 16777215
 74
     1
 91
        4
 64
     7
 65
   257
 75
     1
175
     1
 42
1.0
 92
        0
 66
   257
 43
1.0
 76
     1
 77
     6
 78
     2
 67
     7
 79
     5
170
     0
171
     0
290
     0
174
     0
 93
       13
 44
0.0
173
     0
291
     1
 45
0.0
1001
ACAD
1000
AcDbSavedByObjectVersion
1070
     0
  0
VISUALSTYLE
  5
570
102
{ACAD_XDICTIONARY
360
5DE
102
}
102
{ACAD_REACTORS
330
56D
102
}
330
56D
100
AcDbVisualStyle
  2
Gouraud
 70
     2
 71
     2
 72
     2
 73
     1
 90
        2
 40
-0.6
 41
30.0
 62
     5
 63
     7
421
 16777215
 74
     0
 91
        4
 64
     7
 65
   257
 75
     1
175
     1
 42
1.0
 92
        0
 66
     7
 43
1.0
 76
     1
 77
     6
 78
     2
 67
     7
 79
     5
170
     0
171
     0
290
     0
174
     0
 93
       13
 44
0.0
173
     0
291
     1
 45
0.0
1001
ACAD
1000
AcDbSavedByObjectVersion
1070
     0
  0
VISUALSTYLE
  5
571
102
{ACAD_XDICTIONARY
360
5E0
102
}
102
{ACAD_REACTORS
330
56D
102
}
330
56D
100
AcDbVisualStyle
  2
GouraudWithEdges
 70
     3
 71
     2
 72
     2
 73
     1
 90
        2
 40
-0.6
 41
30.0
 62
     5
 63
     7
421
 16777215
 74
     1
 91
        4
 64
     7
 65
   257
 75
     1
175
     1
 42
1.0
 92
        0
 66
   257
 43
1.0
 76
     1
 77
     6
 78
     2
 67
     7
 79
     5
170
     0
171
     0
290
     0
174
     0
 93
       13
 44
0.0
173
     0
291
     1
 45
0.0
1001
ACAD
1000
AcDbSavedByObjectVersion
1070
     0
  0
VISUALSTYLE
  5
57E
102
{ACAD_XDICTIONARY
360
5FA
102
}
102
{ACAD_REACTORS
330
56D
102
}
330
56D
100
AcDbVisualStyle
  2
JitterOff
 70
    20
 71
     2
 72
     2
 73
     0
 90
        0
 40
-0.6
 41
-30.0
 62
     5
 63
     7
421
 16777215
 74
     1
 91
        4
 64
     7
 65
   257
 75
     1
175
     1
 42
1.0
 92
       10
 66
     7
 43
1.0
 76
     1
 77
     6
 78
     2
 67
     7
 79
     5
170
     0
171
     0
290
     0
174
     0
 93
        1
 44
0.0
173
     0
291
     1
 45
0.0
1001
ACAD
1000
AcDbSavedByObjectVersion
1070
     0
  0
VISUALSTYLE
  5
57B
102
{ACAD_XDICTIONARY
360
5F4
102
}
102
{ACAD_REACTORS
330
56D
102
}
330
56D
100
AcDbVisualStyle
  2
Linepattern
 70
    14
 71
     2
 72
     2
 73
     0
 90
        0
 40
-0.6
 41
-30.0
 62
     5
 63
     7
421
 16777215
 74
     1
 91
        4
 64
     7
 65
   257
 75
     7
175
     7
 42
1.0
 92
        8
 66
     7
 43
1.0
 76
     1
 77
     6
 78
     2
 67
     7
 79
     5
170
     0
171
     0
290
     0
174
     0
 93
        1
 44
0.0
173
     0
291
     1
 45
0.0
1001
ACAD
1000
AcDbSavedByObjectVersion
1070
     0
  0
VISUALSTYLE
  5
57F
102
{ACAD_XDICTIONARY
360
5FC
102
}
102
{ACAD_REACTORS
330
56D
102
}
330
56D
100
AcDbVisualStyle
  2
OverhangOff
 70
    21
 71
     2
 72
     2
 73
     0
 90
        0
 40
-0.6
 41
-30.0
 62
     5
 63
     7
421
 16777215
 74
     1
 91
        4
 64
     7
 65
   257
 75
     1
175
     1
 42
1.0
 92
        9
 66
     7
 43
1.0
 76
     1
 77
     6
 78
     2
 67
     7
 79
     5
170
     0
171
     0
290
     0
174
     0
 93
        1
 44
0.0
173
     0
291
     1
 45
0.0
1001
ACAD
1000
AcDbSavedByObjectVersion
1070
     0
  0
VISUALSTYLE
  5
577
102
{ACAD_XDICTIONARY
360
5EC
102
}
102
{ACAD_REACTORS
330
56D
102
}
330
56D
100
AcDbVisualStyle
  2
Realistic
 70
     8
 71
     2
 72
     2
 73
     0
 90
        0
 40
-0.6
 41
-30.0
 62
     5
 63
     7
421
 16777215
 74
     1
 91
        0
 64
     7
 65
   257
 75
     1
175
     1
 42
1.0
 92
        8
 66
     8
424
  7895160
 43
1.0
 76
     1
 77
     6
 78
     2
 67
     7
 79
     5
170
     0
171
     0
290
     0
174
     0
 93
       13
 44
0.0
173
     0
291
     0
 45
0.0
1001
ACAD
1000
AcDbSavedByObjectVersion
1070
     0
  0
VISUALSTYLE
  5
57A
102
{ACAD_XDICTIONARY
360
5F2
102
}
102
{ACAD_REACTORS
330
56D
102
}
330
56D
100
AcDbVisualStyle
  2
Thicken
 70
    13
 71
     2
 72
     2
 73
     0
 90
        0
 40
-0.6
 41
-30.0
 62
     5
 63
     7
421
 16777215
 74
     1
 91
        4
 64
     7
 65
   257
 75
     1
175
     1
 42
1.0
 92
       12
 66
     7
 43
1.0
 76
     1
 77
     6
 78
     2
 67
     7
 79
     5
170
     0
171
     0
290
     0
174
     0
 93
        1
 44
0.0
173
     0
291
     1
 45
0.0
1001
ACAD
1000
AcDbSavedByObjectVersion
1070
     0
  0
DICTIONARYVAR
  5
5D2
102
{ACAD_REACTORS
330
5CF
102
}
330
5CF
100
DictionaryVariables
280
     0
  1
1:1
  0
DICTIONARYVAR
  5
5D1
102
{ACAD_REACTORS
330
5CF
102
}
330
5CF
100
DictionaryVariables
280
     0
  1
STANDARD
  0
DICTIONARYVAR
  5
5D0
102
{ACAD_REACTORS
330
5CF
102
}
330
5CF
100
DictionaryVariables
280
     0
  1
STANDARD
  0
DICTIONARYVAR
  5
5D3
102
{ACAD_REACTORS
330
5CF
102
}
330
5CF
100
DictionaryVariables
280
     0
  1
2
  0
DICTIONARY
  5
55E
330
55D
100
AcDbDictionary
280
     1
281
     1
  3
ACAD_XREC_ROUNDTRIP
360
5D8
  3
BUMPTILE
360
560
  3
DIFFUSETILE
360
55F
  3
OPACITYTILE
360
563
  3
REFLECTIONTILE
360
562
  3
REFRACTIONTILE
360
564
  3
SPECULARTILE
360
561
  0
DICTIONARY
  5
556
330
555
100
AcDbDictionary
280
     1
281
     1
  3
ACAD_XREC_ROUNDTRIP
360
5D7
  3
BUMPTILE
360
558
  3
DIFFUSETILE
360
557
  3
OPACITYTILE
360
55B
  3
REFLECTIONTILE
360
55A
  3
REFRACTIONTILE
360
55C
  3
SPECULARTILE
360
559
  0
DICTIONARY
  5
566
330
565
100
AcDbDictionary
280
     1
281
     1
  3
ACAD_XREC_ROUNDTRIP
360
5D9
  3
BUMPTILE
360
568
  3
DIFFUSETILE
360
567
  3
OPACITYTILE
360
56B
  3
REFLECTIONTILE
360
56A
  3
REFRACTIONTILE
360
56C
  3
SPECULARTILE
360
569
  0
DICTIONARY
  5
5D4
330
583
100
AcDbDictionary
280
     1
281
     1
  3
ACAD_ROUNDTRIP_2008_TABLESTYLE_CELLSTYLEMAP
360
5D5
  3
ACAD_XREC_ROUNDTRIP
360
600
  0
DICTIONARY
  5
5E4
330
573
100
AcDbDictionary
280
     1
281
     1
  3
ACAD_XREC_ROUNDTRIP
360
5E5
  0
DICTIONARY
  5
5E8
330
575
100
AcDbDictionary
280
     1
281
     1
  3
ACAD_XREC_ROUNDTRIP
360
5E9
  0
DICTIONARY
  5
5E6
330
574
100
AcDbDictionary
280
     1
281
     1
  3
ACAD_XREC_ROUNDTRIP
360
5E7
  0
DICTIONARY
  5
5E2
330
572
100
AcDbDictionary
280
     1
281
     1
  3
ACAD_XREC_ROUNDTRIP
360
5E3
  0
DICTIONARY
  5
5F0
330
579
100
AcDbDictionary
280
     1
281
     1
  3
ACAD_XREC_ROUNDTRIP
360
5F1
  0
DICTIONARY
  5
5F8
330
57D
100
AcDbDictionary
280
     1
281
     1
  3
ACAD_XREC_ROUNDTRIP
360
5F9
  0
DICTIONARY
  5
5EA
330
576
100
AcDbDictionary
280
     1
281
     1
  3
ACAD_XREC_ROUNDTRIP
360
5EB
  0
DICTIONARY
  5
5EE
330
578
100
AcDbDictionary
280
     1
281
     1
  3
ACAD_XREC_ROUNDTRIP
360
5EF
  0
DICTIONARY
  5
5FE
330
580
100
AcDbDictionary
280
     1
281
     1
  3
ACAD_XREC_ROUNDTRIP
360
5FF
  0
DICTIONARY
  5
5F6
330
57C
100
AcDbDictionary
280
     1
281
     1
  3
ACAD_XREC_ROUNDTRIP
360
5F7
  0
DICTIONARY
  5
5DA
330
56E
100
AcDbDictionary
280
     1
281
     1
  3
ACAD_XREC_ROUNDTRIP
360
5DB
  0
DICTIONARY
  5
5DC
330
56F
100
AcDbDictionary
280
     1
281
     1
  3
ACAD_XREC_ROUNDTRIP
360
5DD
  0
DICTIONARY
  5
5DE
330
570
100
AcDbDictionary
280
     1
281
     1
  3
ACAD_XREC_ROUNDTRIP
360
5DF
  0
DICTIONARY
  5
5E0
330
571
100
AcDbDictionary
280
     1
281
     1
  3
ACAD_XREC_ROUNDTRIP
360
5E1
  0
DICTIONARY
  5
5FA
330
57E
100
AcDbDictionary
280
     1
281
     1
  3
ACAD_XREC_ROUNDTRIP
360
5FB
  0
DICTIONARY
  5
5F4
330
57B
100
AcDbDictionary
280
     1
281
     1
  3
ACAD_XREC_ROUNDTRIP
360
5F5
  0
DICTIONARY
  5
5FC
330
57F
100
AcDbDictionary
280
     1
281
     1
  3
ACAD_XREC_ROUNDTRIP
360
5FD
  0
DICTIONARY
  5
5EC
330
577
100
AcDbDictionary
280
     1
281
     1
  3
ACAD_XREC_ROUNDTRIP
360
5ED
  0
DICTIONARY
  5
5F2
330
57A
100
AcDbDictionary
280
     1
281
     1
  3
ACAD_XREC_ROUNDTRIP
360
5F3
  0
XRECORD
  5
5D8
102
{ACAD_REACTORS
330
55E
102
}
330
55E
100
AcDbXrecord
280
     1
102
MATERIAL
148
0.0
149
0.0
149
0.0
 93
        0
 94
      127
282
     0
 72
     0
 77
     0
171
     0
175
     0
179
     0
273
     0
  0
XRECORD
  5
560
102
{ACAD_REACTORS
330
55E
102
}
330
55E
100
AcDbXrecord
280
     1
270
     1
271
     1
  0
XRECORD
  5
55F
102
{ACAD_REACTORS
330
55E
102
}
330
55E
100
AcDbXrecord
280
     1
270
     1
271
     1
  0
XRECORD
  5
563
102
{ACAD_REACTORS
330
55E
102
}
330
55E
100
AcDbXrecord
280
     1
270
     1
271
     1
  0
XRECORD
  5
562
102
{ACAD_REACTORS
330
55E
102
}
330
55E
100
AcDbXrecord
280
     1
270
     1
271
     1
  0
XRECORD
  5
564
102
{ACAD_REACTORS
330
55E
102
}
330
55E
100
AcDbXrecord
280
     1
270
     1
271
     1
  0
XRECORD
  5
561
102
{ACAD_REACTORS
330
55E
102
}
330
55E
100
AcDbXrecord
280
     1
270
     1
271
     1
  0
XRECORD
  5
5D7
102
{ACAD_REACTORS
330
556
102
}
330
556
100
AcDbXrecord
280
     1
102
MATERIAL
148
0.0
149
0.0
149
0.0
 93
        0
 94
      127
282
     0
 72
     0
 77
     0
171
     0
175
     0
179
     0
273
     0
  0
XRECORD
  5
558
102
{ACAD_REACTORS
330
556
102
}
330
556
100
AcDbXrecord
280
     1
270
     1
271
     1
  0
XRECORD
  5
557
102
{ACAD_REACTORS
330
556
102
}
330
556
100
AcDbXrecord
280
     1
270
     1
271
     1
  0
XRECORD
  5
55B
102
{ACAD_REACTORS
330
556
102
}
330
556
100
AcDbXrecord
280
     1
270
     1
271
     1
  0
XRECORD
  5
55A
102
{ACAD_REACTORS
330
556
102
}
330
556
100
AcDbXrecord
280
     1
270
     1
271
     1
  0
XRECORD
  5
55C
102
{ACAD_REACTORS
330
556
102
}
330
556
100
AcDbXrecord
280
     1
270
     1
271
     1
  0
XRECORD
  5
559
102
{ACAD_REACTORS
330
556
102
}
330
556
100
AcDbXrecord
280
     1
270
     1
271
     1
  0
XRECORD
  5
5D9
102
{ACAD_REACTORS
330
566
102
}
330
566
100
AcDbXrecord
280
     1
102
MATERIAL
148
0.0
149
0.0
149
0.0
 93
        0
 94
      127
282
     0
 72
     0
 77
     0
171
     0
175
     0
179
     0
273
     0
  0
XRECORD
  5
568
102
{ACAD_REACTORS
330
566
102
}
330
566
100
AcDbXrecord
280
     1
270
     1
271
     1
  0
XRECORD
  5
567
102
{ACAD_REACTORS
330
566
102
}
330
566
100
AcDbXrecord
280
     1
270
     1
271
     1
  0
XRECORD
  5
56B
102
{ACAD_REACTORS
330
566
102
}
330
566
100
AcDbXrecord
280
     1
270
     1
271
     1
  0
XRECORD
  5
56A
102
{ACAD_REACTORS
330
566
102
}
330
566
100
AcDbXrecord
280
     1
270
     1
271
     1
  0
XRECORD
  5
56C
102
{ACAD_REACTORS
330
566
102
}
330
566
100
AcDbXrecord
280
     1
270
     1
271
     1
  0
XRECORD
  5
569
102
{ACAD_REACTORS
330
566
102
}
330
566
100
AcDbXrecord
280
     1
270
     1
271
     1
  0
CELLSTYLEMAP
  5
5D5
102
{ACAD_REACTORS
330
5D4
102
}
330
5D4
100
AcDbCellStyleMap
 90
        3
300
CELLSTYLE
  1
TABLEFORMAT_BEGIN
 90
        5
170
     1
 91
        0
 92
    32768
 62
   257
 93
        1
300
CONTENTFORMAT
  1
CONTENTFORMAT_BEGIN
 90
        0
 91
        0
 92
      512
 93
        0
300

 40
0.0
140
1.0
 94
        5
 62
     0
340
11
144
6.0
309
CONTENTFORMAT_END
171
     1
301
MARGIN
  1
CELLMARGIN_BEGIN
 40
1.5
 40
1.5
 40
1.5
 40
1.5
 40
4.5
 40
4.5
309
CELLMARGIN_END
 94
        6
 95
        1
302
GRIDFORMAT
  1
GRIDFORMAT_BEGIN
 90
        0
 91
        1
 62
     0
 92
       -2
340
0
 93
        0
 40
1.125
309
GRIDFORMAT_END
 95
        2
302
GRIDFORMAT
  1
GRIDFORMAT_BEGIN
 90
        0
 91
        1
 62
     0
 92
       -2
340
0
 93
        0
 40
1.125
309
GRIDFORMAT_END
 95
        4
302
GRIDFORMAT
  1
GRIDFORMAT_BEGIN
 90
        0
 91
        1
 62
     0
 92
       -2
340
0
 93
        0
 40
1.125
309
GRIDFORMAT_END
 95
        8
302
GRIDFORMAT
  1
GRIDFORMAT_BEGIN
 90
        0
 91
        1
 62
     0
 92
       -2
340
0
 93
        0
 40
1.125
309
GRIDFORMAT_END
 95
       16
302
GRIDFORMAT
  1
GRIDFORMAT_BEGIN
 90
        0
 91
        1
 62
     0
 92
       -2
340
0
 93
        0
 40
1.125
309
GRIDFORMAT_END
 95
       32
302
GRIDFORMAT
  1
GRIDFORMAT_BEGIN
 90
        0
 91
        1
 62
     0
 92
       -2
340
0
 93
        0
 40
1.125
309
GRIDFORMAT_END
309
TABLEFORMAT_END
  1
CELLSTYLE_BEGIN
 90
        1
 91
        1
300
_TITLE
309
CELLSTYLE_END
300
CELLSTYLE
  1
TABLEFORMAT_BEGIN
 90
        5
170
     1
 91
        0
 92
        0
 62
   257
 93
        1
300
CONTENTFORMAT
  1
CONTENTFORMAT_BEGIN
 90
        0
 91
        0
 92
      512
 93
        0
300

 40
0.0
140
1.0
 94
        5
 62
     0
340
11
144
4.5
309
CONTENTFORMAT_END
171
     1
301
MARGIN
  1
CELLMARGIN_BEGIN
 40
1.5
 40
1.5
 40
1.5
 40
1.5
 40
4.5
 40
4.5
309
CELLMARGIN_END
 94
        6
 95
        1
302
GRIDFORMAT
  1
GRIDFORMAT_BEGIN
 90
        0
 91
        1
 62
     0
 92
       -2
340
0
 93
        0
 40
1.125
309
GRIDFORMAT_END
 95
        2
302
GRIDFORMAT
  1
GRIDFORMAT_BEGIN
 90
        0
 91
        1
 62
     0
 92
       -2
340
0
 93
        0
 40
1.125
309
GRIDFORMAT_END
 95
        4
302
GRIDFORMAT
  1
GRIDFORMAT_BEGIN
 90
        0
 91
        1
 62
     0
 92
       -2
340
0
 93
        0
 40
1.125
309
GRIDFORMAT_END
 95
        8
302
GRIDFORMAT
  1
GRIDFORMAT_BEGIN
 90
        0
 91
        1
 62
     0
 92
       -2
340
0
 93
        0
 40
1.125
309
GRIDFORMAT_END
 95
       16
302
GRIDFORMAT
  1
GRIDFORMAT_BEGIN
 90
        0
 91
        1
 62
     0
 92
       -2
340
0
 93
        0
 40
1.125
309
GRIDFORMAT_END
 95
       32
302
GRIDFORMAT
  1
GRIDFORMAT_BEGIN
 90
        0
 91
        1
 62
     0
 92
       -2
340
0
 93
        0
 40
1.125
309
GRIDFORMAT_END
309
TABLEFORMAT_END
  1
CELLSTYLE_BEGIN
 90
        2
 91
        1
300
_HEADER
309
CELLSTYLE_END
300
CELLSTYLE
  1
TABLEFORMAT_BEGIN
 90
        5
170
     1
 91
        0
 92
        0
 62
   257
 93
        1
300
CONTENTFORMAT
  1
CONTENTFORMAT_BEGIN
 90
        0
 91
        0
 92
      512
 93
        0
300

 40
0.0
140
1.0
 94
        2
 62
     0
340
11
144
4.5
309
CONTENTFORMAT_END
171
     1
301
MARGIN
  1
CELLMARGIN_BEGIN
 40
1.5
 40
1.5
 40
1.5
 40
1.5
 40
4.5
 40
4.5
309
CELLMARGIN_END
 94
        6
 95
        1
302
GRIDFORMAT
  1
GRIDFORMAT_BEGIN
 90
        0
 91
        1
 62
     0
 92
       -2
340
0
 93
        0
 40
1.125
309
GRIDFORMAT_END
 95
        2
302
GRIDFORMAT
  1
GRIDFORMAT_BEGIN
 90
        0
 91
        1
 62
     0
 92
       -2
340
0
 93
        0
 40
1.125
309
GRIDFORMAT_END
 95
        4
302
GRIDFORMAT
  1
GRIDFORMAT_BEGIN
 90
        0
 91
        1
 62
     0
 92
       -2
340
0
 93
        0
 40
1.125
309
GRIDFORMAT_END
 95
        8
302
GRIDFORMAT
  1
GRIDFORMAT_BEGIN
 90
        0
 91
        1
 62
     0
 92
       -2
340
0
 93
        0
 40
1.125
309
GRIDFORMAT_END
 95
       16
302
GRIDFORMAT
  1
GRIDFORMAT_BEGIN
 90
        0
 91
        1
 62
     0
 92
       -2
340
0
 93
        0
 40
1.125
309
GRIDFORMAT_END
 95
       32
302
GRIDFORMAT
  1
GRIDFORMAT_BEGIN
 90
        0
 91
        1
 62
     0
 92
       -2
340
0
 93
        0
 40
1.125
309
GRIDFORMAT_END
309
TABLEFORMAT_END
  1
CELLSTYLE_BEGIN
 90
        3
 91
        2
300
_DATA
309
CELLSTYLE_END
  0
XRECORD
  5
600
102
{ACAD_REACTORS
330
5D4
102
}
330
5D4
100
AcDbXrecord
280
     1
102
ACAD_ROUNDTRIP_PRE2007_TABLESTYLE
 90
      512
 91
        0
  1

 92
      512
 93
        0
  2

 94
      512
 95
        0
  3

  0
XRECORD
  5
5E5
102
{ACAD_REACTORS
330
5E4
102
}
330
5E4
100
AcDbXrecord
280
     1
102
RTVSPropertyOp0
 70
     1
102
RTVSPropertyOp1
 70
     1
102
RTVSPropertyOp2
 70
     1
102
RTVSPropertyOp3
 70
     1
102
RTVSPropertyOp4
 70
     1
102
RTVSPropertyOp5
 70
     1
102
RTVSPropertyOp6
 70
     1
102
RTVSPropertyOp7
 70
     1
102
RTVSPropertyOp8
 70
     1
102
RTVSPropertyOp9
 70
     1
102
RTVSPropertyOp10
 70
     1
102
RTVSPropertyOp11
 70
     1
102
RTVSPropertyOp12
 70
     1
102
RTVSPropertyOp13
 70
     1
102
RTVSPropertyOp14
 70
     1
102
RTVSPropertyOp15
 70
     1
102
RTVSPropertyOp16
 70
     1
102
RTVSPropertyOp17
 70
     1
102
RTVSPropertyOp18
 70
     1
102
RTVSPropertyOp19
 70
     1
102
RTVSPropertyOp20
 70
     1
102
RTVSPropertyOp21
 70
     1
102
RTVSPropertyOp22
 70
     1
102
RTVSPropertyOp23
 70
     1
102
RTVSPropertyOp24
 70
     1
102
RTVSPropertyOp25
 70
     1
102
RTVSPropertyOp26
 70
     1
102
RTVSPropertyOp27
 70
     1
  0
XRECORD
  5
5E9
102
{ACAD_REACTORS
330
5E8
102
}
330
5E8
100
AcDbXrecord
280
     1
102
RTVSPropertyOp0
 70
     1
102
RTVSPropertyOp1
 70
     1
102
RTVSPropertyOp2
 70
     1
102
RTVSPropertyOp3
 70
     1
102
RTVSPropertyOp4
 70
     1
102
RTVSPropertyOp5
 70
     1
102
RTVSPropertyOp6
 70
     1
102
RTVSPropertyOp7
 70
     1
102
RTVSPropertyOp8
 70
     1
102
RTVSPropertyOp9
 70
     1
102
RTVSPropertyOp10
 70
     1
102
RTVSPropertyOp11
 70
     1
102
RTVSPropertyOp12
 70
     1
102
RTVSPropertyOp13
 70
     1
102
RTVSPropertyOp14
 70
     1
102
RTVSPropertyOp15
 70
     1
102
RTVSPropertyOp16
 70
     1
102
RTVSPropertyOp17
 70
     1
102
RTVSPropertyOp18
 70
     1
102
RTVSPropertyOp19
 70
     1
102
RTVSPropertyOp20
 70
     1
102
RTVSPropertyOp21
 70
     1
102
RTVSPropertyOp22
 70
     1
102
RTVSPropertyOp23
 70
     1
102
RTVSPropertyOp24
 70
     1
102
RTVSPropertyOp25
 70
     1
102
RTVSPropertyOp26
 70
     1
102
RTVSPropertyOp27
 70
     1
  0
XRECORD
  5
5E7
102
{ACAD_REACTORS
330
5E6
102
}
330
5E6
100
AcDbXrecord
280
     1
102
RTVSPropertyOp0
 70
     1
102
RTVSPropertyOp1
 70
     1
102
RTVSPropertyOp2
 70
     1
102
RTVSPropertyOp3
 70
     1
102
RTVSPropertyOp4
 70
     1
102
RTVSPropertyOp5
 70
     1
102
RTVSPropertyOp6
 70
     1
102
RTVSPropertyOp7
 70
     1
102
RTVSPropertyOp8
 70
     1
102
RTVSPropertyOp9
 70
     1
102
RTVSPropertyOp10
 70
     1
102
RTVSPropertyOp11
 70
     1
102
RTVSPropertyOp12
 70
     1
102
RTVSPropertyOp13
 70
     1
102
RTVSPropertyOp14
 70
     1
102
RTVSPropertyOp15
 70
     1
102
RTVSPropertyOp16
 70
     1
102
RTVSPropertyOp17
 70
     1
102
RTVSPropertyOp18
 70
     1
102
RTVSPropertyOp19
 70
     1
102
RTVSPropertyOp20
 70
     1
102
RTVSPropertyOp21
 70
     1
102
RTVSPropertyOp22
 70
     1
102
RTVSPropertyOp23
 70
     1
102
RTVSPropertyOp24
 70
     1
102
RTVSPropertyOp25
 70
     1
102
RTVSPropertyOp26
 70
     1
102
RTVSPropertyOp27
 70
     1
  0
XRECORD
  5
5E3
102
{ACAD_REACTORS
330
5E2
102
}
330
5E2
100
AcDbXrecord
280
     1
102
RTVSPropertyOp0
 70
     1
102
RTVSPropertyOp1
 70
     1
102
RTVSPropertyOp2
 70
     1
102
RTVSPropertyOp3
 70
     1
102
RTVSPropertyOp4
 70
     1
102
RTVSPropertyOp5
 70
     1
102
RTVSPropertyOp6
 70
     1
102
RTVSPropertyOp7
 70
     1
102
RTVSPropertyOp8
 70
     1
102
RTVSPropertyOp9
 70
     1
102
RTVSPropertyOp10
 70
     1
102
RTVSPropertyOp11
 70
     1
102
RTVSPropertyOp12
 70
     1
102
RTVSPropertyOp13
 70
     1
102
RTVSPropertyOp14
 70
     1
102
RTVSPropertyOp15
 70
     1
102
RTVSPropertyOp16
 70
     1
102
RTVSPropertyOp17
 70
     1
102
RTVSPropertyOp18
 70
     1
102
RTVSPropertyOp19
 70
     1
102
RTVSPropertyOp20
 70
     1
102
RTVSPropertyOp21
 70
     1
102
RTVSPropertyOp22
 70
     1
102
RTVSPropertyOp23
 70
     1
102
RTVSPropertyOp24
 70
     1
102
RTVSPropertyOp25
 70
     1
102
RTVSPropertyOp26
 70
     1
102
RTVSPropertyOp27
 70
     1
  0
XRECORD
  5
5F1
102
{ACAD_REACTORS
330
5F0
102
}
330
5F0
100
AcDbXrecord
280
     1
102
RTVSPropertyOp0
 70
     1
102
RTVSPropertyOp1
 70
     1
102
RTVSPropertyOp2
 70
     1
102
RTVSPropertyOp3
 70
     1
102
RTVSPropertyOp4
 70
     1
102
RTVSPropertyOp5
 70
     1
102
RTVSPropertyOp6
 70
     1
102
RTVSPropertyOp7
 70
     1
102
RTVSPropertyOp8
 70
     1
102
RTVSPropertyOp9
 70
     1
102
RTVSPropertyOp10
 70
     1
102
RTVSPropertyOp11
 70
     1
102
RTVSPropertyOp12
 70
     1
102
RTVSPropertyOp13
 70
     1
102
RTVSPropertyOp14
 70
     1
102
RTVSPropertyOp15
 70
     1
102
RTVSPropertyOp16
 70
     1
102
RTVSPropertyOp17
 70
     1
102
RTVSPropertyOp18
 70
     1
102
RTVSPropertyOp19
 70
     1
102
RTVSPropertyOp20
 70
     1
102
RTVSPropertyOp21
 70
     1
102
RTVSPropertyOp22
 70
     1
102
RTVSPropertyOp23
 70
     1
102
RTVSPropertyOp24
 70
     1
102
RTVSPropertyOp25
 70
     1
102
RTVSPropertyOp26
 70
     1
102
RTVSPropertyOp27
 70
     1
  0
XRECORD
  5
5F9
102
{ACAD_REACTORS
330
5F8
102
}
330
5F8
100
AcDbXrecord
280
     1
102
RTVSPropertyOp0
 70
     1
102
RTVSPropertyOp1
 70
     1
102
RTVSPropertyOp2
 70
     1
102
RTVSPropertyOp3
 70
     1
102
RTVSPropertyOp4
 70
     1
102
RTVSPropertyOp5
 70
     1
102
RTVSPropertyOp6
 70
     1
102
RTVSPropertyOp7
 70
     1
102
RTVSPropertyOp8
 70
     1
102
RTVSPropertyOp9
 70
     1
102
RTVSPropertyOp10
 70
     1
102
RTVSPropertyOp11
 70
     1
102
RTVSPropertyOp12
 70
     1
102
RTVSPropertyOp13
 70
     1
102
RTVSPropertyOp14
 70
     1
102
RTVSPropertyOp15
 70
     1
102
RTVSPropertyOp16
 70
     1
102
RTVSPropertyOp17
 70
     1
102
RTVSPropertyOp18
 70
     1
102
RTVSPropertyOp19
 70
     1
102
RTVSPropertyOp20
 70
     1
102
RTVSPropertyOp21
 70
     1
102
RTVSPropertyOp22
 70
     1
102
RTVSPropertyOp23
 70
     1
102
RTVSPropertyOp24
 70
     1
102
RTVSPropertyOp25
 70
     1
102
RTVSPropertyOp26
 70
     1
102
RTVSPropertyOp27
 70
     1
  0
XRECORD
  5
5EB
102
{ACAD_REACTORS
330
5EA
102
}
330
5EA
100
AcDbXrecord
280
     1
102
RTVSPropertyOp0
 70
     1
102
RTVSPropertyOp1
 70
     1
102
RTVSPropertyOp2
 70
     1
102
RTVSPropertyOp3
 70
     1
102
RTVSPropertyOp4
 70
     1
102
RTVSPropertyOp5
 70
     1
102
RTVSPropertyOp6
 70
     1
102
RTVSPropertyOp7
 70
     1
102
RTVSPropertyOp8
 70
     1
102
RTVSPropertyOp9
 70
     1
102
RTVSPropertyOp10
 70
     1
102
RTVSPropertyOp11
 70
     1
102
RTVSPropertyOp12
 70
     1
102
RTVSPropertyOp13
 70
     1
102
RTVSPropertyOp14
 70
     1
102
RTVSPropertyOp15
 70
     1
102
RTVSPropertyOp16
 70
     1
102
RTVSPropertyOp17
 70
     1
102
RTVSPropertyOp18
 70
     1
102
RTVSPropertyOp19
 70
     1
102
RTVSPropertyOp20
 70
     1
102
RTVSPropertyOp21
 70
     1
102
RTVSPropertyOp22
 70
     1
102
RTVSPropertyOp23
 70
     1
102
RTVSPropertyOp24
 70
     1
102
RTVSPropertyOp25
 70
     1
102
RTVSPropertyOp26
 70
     1
102
RTVSPropertyOp27
 70
     1
  0
XRECORD
  5
5EF
102
{ACAD_REACTORS
330
5EE
102
}
330
5EE
100
AcDbXrecord
280
     1
102
RTVSPropertyOp0
 70
     1
102
RTVSPropertyOp1
 70
     1
102
RTVSPropertyOp2
 70
     1
102
RTVSPropertyOp3
 70
     1
102
RTVSPropertyOp4
 70
     1
102
RTVSPropertyOp5
 70
     1
102
RTVSPropertyOp6
 70
     1
102
RTVSPropertyOp7
 70
     1
102
RTVSPropertyOp8
 70
     1
102
RTVSPropertyOp9
 70
     1
102
RTVSPropertyOp10
 70
     1
102
RTVSPropertyOp11
 70
     1
102
RTVSPropertyOp12
 70
     1
102
RTVSPropertyOp13
 70
     1
102
RTVSPropertyOp14
 70
     1
102
RTVSPropertyOp15
 70
     1
102
RTVSPropertyOp16
 70
     1
102
RTVSPropertyOp17
 70
     1
102
RTVSPropertyOp18
 70
     1
102
RTVSPropertyOp19
 70
     1
102
RTVSPropertyOp20
 70
     1
102
RTVSPropertyOp21
 70
     1
102
RTVSPropertyOp22
 70
     1
102
RTVSPropertyOp23
 70
     1
102
RTVSPropertyOp24
 70
     1
102
RTVSPropertyOp25
 70
     1
102
RTVSPropertyOp26
 70
     1
102
RTVSPropertyOp27
 70
     1
  0
XRECORD
  5
5FF
102
{ACAD_REACTORS
330
5FE
102
}
330
5FE
100
AcDbXrecord
280
     1
102
RTVSPropertyOp0
 70
     0
102
RTVSPropertyOp1
 70
     0
102
RTVSPropertyOp2
 70
     0
102
RTVSPropertyOp3
 70
     0
102
RTVSPropertyOp4
 70
     0
102
RTVSPropertyOp5
 70
     0
102
RTVSPropertyOp6
 70
     0
102
RTVSPropertyOp7
 70
     0
102
RTVSPropertyOp8
 70
     0
102
RTVSPropertyOp9
 70
     0
102
RTVSPropertyOp10
 70
     0
102
RTVSPropertyOp11
 70
     0
102
RTVSPropertyOp12
 70
     0
102
RTVSPropertyOp13
 70
     0
102
RTVSPropertyOp14
 70
     2
102
RTVSPropertyOp15
 70
     0
102
RTVSPropertyOp16
 70
     0
102
RTVSPropertyOp17
 70
     0
102
RTVSPropertyOp18
 70
     0
102
RTVSPropertyOp19
 70
     0
102
RTVSPropertyOp20
 70
     0
102
RTVSPropertyOp21
 70
     0
102
RTVSPropertyOp22
 70
     0
102
RTVSPropertyOp23
 70
     0
102
RTVSPropertyOp24
 70
     0
102
RTVSPropertyOp25
 70
     0
102
RTVSPropertyOp26
 70
     0
102
RTVSPropertyOp27
 70
     0
  0
XRECORD
  5
5F7
102
{ACAD_REACTORS
330
5F6
102
}
330
5F6
100
AcDbXrecord
280
     1
102
RTVSPropertyOp0
 70
     1
102
RTVSPropertyOp1
 70
     1
102
RTVSPropertyOp2
 70
     1
102
RTVSPropertyOp3
 70
     1
102
RTVSPropertyOp4
 70
     1
102
RTVSPropertyOp5
 70
     1
102
RTVSPropertyOp6
 70
     1
102
RTVSPropertyOp7
 70
     1
102
RTVSPropertyOp8
 70
     1
102
RTVSPropertyOp9
 70
     1
102
RTVSPropertyOp10
 70
     1
102
RTVSPropertyOp11
 70
     1
102
RTVSPropertyOp12
 70
     1
102
RTVSPropertyOp13
 70
     1
102
RTVSPropertyOp14
 70
     1
102
RTVSPropertyOp15
 70
     1
102
RTVSPropertyOp16
 70
     1
102
RTVSPropertyOp17
 70
     1
102
RTVSPropertyOp18
 70
     1
102
RTVSPropertyOp19
 70
     1
102
RTVSPropertyOp20
 70
     1
102
RTVSPropertyOp21
 70
     1
102
RTVSPropertyOp22
 70
     1
102
RTVSPropertyOp23
 70
     1
102
RTVSPropertyOp24
 70
     1
102
RTVSPropertyOp25
 70
     1
102
RTVSPropertyOp26
 70
     1
102
RTVSPropertyOp27
 70
     1
  0
XRECORD
  5
5DB
102
{ACAD_REACTORS
330
5DA
102
}
330
5DA
100
AcDbXrecord
280
     1
102
RTVSPropertyOp0
 70
     1
102
RTVSPropertyOp1
 70
     1
102
RTVSPropertyOp2
 70
     1
102
RTVSPropertyOp3
 70
     1
102
RTVSPropertyOp4
 70
     1
102
RTVSPropertyOp5
 70
     1
102
RTVSPropertyOp6
 70
     1
102
RTVSPropertyOp7
 70
     1
102
RTVSPropertyOp8
 70
     1
102
RTVSPropertyOp9
 70
     1
102
RTVSPropertyOp10
 70
     1
102
RTVSPropertyOp11
 70
     1
102
RTVSPropertyOp12
 70
     1
102
RTVSPropertyOp13
 70
     1
102
RTVSPropertyOp14
 70
     1
102
RTVSPropertyOp15
 70
     1
102
RTVSPropertyOp16
 70
     1
102
RTVSPropertyOp17
 70
     1
102
RTVSPropertyOp18
 70
     1
102
RTVSPropertyOp19
 70
     1
102
RTVSPropertyOp20
 70
     1
102
RTVSPropertyOp21
 70
     1
102
RTVSPropertyOp22
 70
     1
102
RTVSPropertyOp23
 70
     1
102
RTVSPropertyOp24
 70
     1
102
RTVSPropertyOp25
 70
     1
102
RTVSPropertyOp26
 70
     1
102
RTVSPropertyOp27
 70
     1
  0
XRECORD
  5
5DD
102
{ACAD_REACTORS
330
5DC
102
}
330
5DC
100
AcDbXrecord
280
     1
102
RTVSPropertyOp0
 70
     1
102
RTVSPropertyOp1
 70
     1
102
RTVSPropertyOp2
 70
     1
102
RTVSPropertyOp3
 70
     1
102
RTVSPropertyOp4
 70
     1
102
RTVSPropertyOp5
 70
     1
102
RTVSPropertyOp6
 70
     1
102
RTVSPropertyOp7
 70
     1
102
RTVSPropertyOp8
 70
     1
102
RTVSPropertyOp9
 70
     1
102
RTVSPropertyOp10
 70
     1
102
RTVSPropertyOp11
 70
     1
102
RTVSPropertyOp12
 70
     1
102
RTVSPropertyOp13
 70
     1
102
RTVSPropertyOp14
 70
     1
102
RTVSPropertyOp15
 70
     1
102
RTVSPropertyOp16
 70
     1
102
RTVSPropertyOp17
 70
     1
102
RTVSPropertyOp18
 70
     1
102
RTVSPropertyOp19
 70
     1
102
RTVSPropertyOp20
 70
     1
102
RTVSPropertyOp21
 70
     1
102
RTVSPropertyOp22
 70
     1
102
RTVSPropertyOp23
 70
     1
102
RTVSPropertyOp24
 70
     1
102
RTVSPropertyOp25
 70
     1
102
RTVSPropertyOp26
 70
     1
102
RTVSPropertyOp27
 70
     1
  0
XRECORD
  5
5DF
102
{ACAD_REACTORS
330
5DE
102
}
330
5DE
100
AcDbXrecord
280
     1
102
RTVSPropertyOp0
 70
     1
102
RTVSPropertyOp1
 70
     1
102
RTVSPropertyOp2
 70
     1
102
RTVSPropertyOp3
 70
     1
102
RTVSPropertyOp4
 70
     1
102
RTVSPropertyOp5
 70
     1
102
RTVSPropertyOp6
 70
     1
102
RTVSPropertyOp7
 70
     1
102
RTVSPropertyOp8
 70
     1
102
RTVSPropertyOp9
 70
     1
102
RTVSPropertyOp10
 70
     1
102
RTVSPropertyOp11
 70
     1
102
RTVSPropertyOp12
 70
     1
102
RTVSPropertyOp13
 70
     1
102
RTVSPropertyOp14
 70
     1
102
RTVSPropertyOp15
 70
     1
102
RTVSPropertyOp16
 70
     1
102
RTVSPropertyOp17
 70
     1
102
RTVSPropertyOp18
 70
     1
102
RTVSPropertyOp19
 70
     1
102
RTVSPropertyOp20
 70
     1
102
RTVSPropertyOp21
 70
     1
102
RTVSPropertyOp22
 70
     1
102
RTVSPropertyOp23
 70
     1
102
RTVSPropertyOp24
 70
     1
102
RTVSPropertyOp25
 70
     1
102
RTVSPropertyOp26
 70
     1
102
RTVSPropertyOp27
 70
     1
  0
XRECORD
  5
5E1
102
{ACAD_REACTORS
330
5E0
102
}
330
5E0
100
AcDbXrecord
280
     1
102
RTVSPropertyOp0
 70
     1
102
RTVSPropertyOp1
 70
     1
102
RTVSPropertyOp2
 70
     1
102
RTVSPropertyOp3
 70
     1
102
RTVSPropertyOp4
 70
     1
102
RTVSPropertyOp5
 70
     1
102
RTVSPropertyOp6
 70
     1
102
RTVSPropertyOp7
 70
     1
102
RTVSPropertyOp8
 70
     1
102
RTVSPropertyOp9
 70
     1
102
RTVSPropertyOp10
 70
     1
102
RTVSPropertyOp11
 70
     1
102
RTVSPropertyOp12
 70
     1
102
RTVSPropertyOp13
 70
     1
102
RTVSPropertyOp14
 70
     1
102
RTVSPropertyOp15
 70
     1
102
RTVSPropertyOp16
 70
     1
102
RTVSPropertyOp17
 70
     1
102
RTVSPropertyOp18
 70
     1
102
RTVSPropertyOp19
 70
     1
102
RTVSPropertyOp20
 70
     1
102
RTVSPropertyOp21
 70
     1
102
RTVSPropertyOp22
 70
     1
102
RTVSPropertyOp23
 70
     1
102
RTVSPropertyOp24
 70
     1
102
RTVSPropertyOp25
 70
     1
102
RTVSPropertyOp26
 70
     1
102
RTVSPropertyOp27
 70
     1
  0
XRECORD
  5
5FB
102
{ACAD_REACTORS
330
5FA
102
}
330
5FA
100
AcDbXrecord
280
     1
102
RTVSPropertyOp0
 70
     0
102
RTVSPropertyOp1
 70
     0
102
RTVSPropertyOp2
 70
     0
102
RTVSPropertyOp3
 70
     0
102
RTVSPropertyOp4
 70
     0
102
RTVSPropertyOp5
 70
     0
102
RTVSPropertyOp6
 70
     0
102
RTVSPropertyOp7
 70
     0
102
RTVSPropertyOp8
 70
     0
102
RTVSPropertyOp9
 70
     0
102
RTVSPropertyOp10
 70
     0
102
RTVSPropertyOp11
 70
     0
102
RTVSPropertyOp12
 70
     0
102
RTVSPropertyOp13
 70
     0
102
RTVSPropertyOp14
 70
     2
102
RTVSPropertyOp15
 70
     0
102
RTVSPropertyOp16
 70
     0
102
RTVSPropertyOp17
 70
     0
102
RTVSPropertyOp18
 70
     0
102
RTVSPropertyOp19
 70
     0
102
RTVSPropertyOp20
 70
     0
102
RTVSPropertyOp21
 70
     0
102
RTVSPropertyOp22
 70
     0
102
RTVSPropertyOp23
 70
     0
102
RTVSPropertyOp24
 70
     0
102
RTVSPropertyOp25
 70
     0
102
RTVSPropertyOp26
 70
     0
102
RTVSPropertyOp27
 70
     0
  0
XRECORD
  5
5F5
102
{ACAD_REACTORS
330
5F4
102
}
330
5F4
100
AcDbXrecord
280
     1
102
RTVSPropertyOp0
 70
     1
102
RTVSPropertyOp1
 70
     1
102
RTVSPropertyOp2
 70
     1
102
RTVSPropertyOp3
 70
     1
102
RTVSPropertyOp4
 70
     1
102
RTVSPropertyOp5
 70
     1
102
RTVSPropertyOp6
 70
     1
102
RTVSPropertyOp7
 70
     1
102
RTVSPropertyOp8
 70
     1
102
RTVSPropertyOp9
 70
     1
102
RTVSPropertyOp10
 70
     1
102
RTVSPropertyOp11
 70
     1
102
RTVSPropertyOp12
 70
     1
102
RTVSPropertyOp13
 70
     1
102
RTVSPropertyOp14
 70
     1
102
RTVSPropertyOp15
 70
     1
102
RTVSPropertyOp16
 70
     1
102
RTVSPropertyOp17
 70
     1
102
RTVSPropertyOp18
 70
     1
102
RTVSPropertyOp19
 70
     1
102
RTVSPropertyOp20
 70
     1
102
RTVSPropertyOp21
 70
     1
102
RTVSPropertyOp22
 70
     1
102
RTVSPropertyOp23
 70
     1
102
RTVSPropertyOp24
 70
     1
102
RTVSPropertyOp25
 70
     1
102
RTVSPropertyOp26
 70
     1
102
RTVSPropertyOp27
 70
     1
  0
XRECORD
  5
5FD
102
{ACAD_REACTORS
330
5FC
102
}
330
5FC
100
AcDbXrecord
280
     1
102
RTVSPropertyOp0
 70
     0
102
RTVSPropertyOp1
 70
     0
102
RTVSPropertyOp2
 70
     0
102
RTVSPropertyOp3
 70
     0
102
RTVSPropertyOp4
 70
     0
102
RTVSPropertyOp5
 70
     0
102
RTVSPropertyOp6
 70
     0
102
RTVSPropertyOp7
 70
     0
102
RTVSPropertyOp8
 70
     0
102
RTVSPropertyOp9
 70
     0
102
RTVSPropertyOp10
 70
     0
102
RTVSPropertyOp11
 70
     0
102
RTVSPropertyOp12
 70
     0
102
RTVSPropertyOp13
 70
     0
102
RTVSPropertyOp14
 70
     2
102
RTVSPropertyOp15
 70
     0
102
RTVSPropertyOp16
 70
     0
102
RTVSPropertyOp17
 70
     0
102
RTVSPropertyOp18
 70
     0
102
RTVSPropertyOp19
 70
     0
102
RTVSPropertyOp20
 70
     0
102
RTVSPropertyOp21
 70
     0
102
RTVSPropertyOp22
 70
     0
102
RTVSPropertyOp23
 70
     0
102
RTVSPropertyOp24
 70
     0
102
RTVSPropertyOp25
 70
     0
102
RTVSPropertyOp26
 70
     0
102
RTVSPropertyOp27
 70
     0
  0
XRECORD
  5
5ED
102
{ACAD_REACTORS
330
5EC
102
}
330
5EC
100
AcDbXrecord
280
     1
102
RTVSPropertyOp0
 70
     1
102
RTVSPropertyOp1
 70
     1
102
RTVSPropertyOp2
 70
     1
102
RTVSPropertyOp3
 70
     1
102
RTVSPropertyOp4
 70
     1
102
RTVSPropertyOp5
 70
     1
102
RTVSPropertyOp6
 70
     1
102
RTVSPropertyOp7
 70
     1
102
RTVSPropertyOp8
 70
     1
102
RTVSPropertyOp9
 70
     1
102
RTVSPropertyOp10
 70
     1
102
RTVSPropertyOp11
 70
     1
102
RTVSPropertyOp12
 70
     1
102
RTVSPropertyOp13
 70
     1
102
RTVSPropertyOp14
 70
     1
102
RTVSPropertyOp15
 70
     1
102
RTVSPropertyOp16
 70
     1
102
RTVSPropertyOp17
 70
     1
102
RTVSPropertyOp18
 70
     1
102
RTVSPropertyOp19
 70
     1
102
RTVSPropertyOp20
 70
     1
102
RTVSPropertyOp21
 70
     1
102
RTVSPropertyOp22
 70
     1
102
RTVSPropertyOp23
 70
     1
102
RTVSPropertyOp24
 70
     1
102
RTVSPropertyOp25
 70
     1
102
RTVSPropertyOp26
 70
     1
102
RTVSPropertyOp27
 70
     1
  0
XRECORD
  5
5F3
102
{ACAD_REACTORS
330
5F2
102
}
330
5F2
100
AcDbXrecord
280
     1
102
RTVSPropertyOp0
 70
     1
102
RTVSPropertyOp1
 70
     1
102
RTVSPropertyOp2
 70
     1
102
RTVSPropertyOp3
 70
     1
102
RTVSPropertyOp4
 70
     1
102
RTVSPropertyOp5
 70
     1
102
RTVSPropertyOp6
 70
     1
102
RTVSPropertyOp7
 70
     1
102
RTVSPropertyOp8
 70
     1
102
RTVSPropertyOp9
 70
     1
102
RTVSPropertyOp10
 70
     1
102
RTVSPropertyOp11
 70
     1
102
RTVSPropertyOp12
 70
     1
102
RTVSPropertyOp13
 70
     1
102
RTVSPropertyOp14
 70
     1
102
RTVSPropertyOp15
 70
     1
102
RTVSPropertyOp16
 70
     1
102
RTVSPropertyOp17
 70
     1
102
RTVSPropertyOp18
 70
     1
102
RTVSPropertyOp19
 70
     1
102
RTVSPropertyOp20
 70
     1
102
RTVSPropertyOp21
 70
     1
102
RTVSPropertyOp22
 70
     1
102
RTVSPropertyOp23
 70
     1
102
RTVSPropertyOp24
 70
     1
102
RTVSPropertyOp25
 70
     1
102
RTVSPropertyOp26
 70
     1
102
RTVSPropertyOp27
 70
     1
  0
ENDSEC
  0
EOF
