999
DXF file: 21880-50bt-b.dxf
999
Pro/ENGINEER 2019352 by Parametric Technology Corporation
  0
SECTION
  2
HEADER
  9
$ACADVER
  1
AC1027
  9
$DWGCODEPAGE
  3
ANSI_1252
  9
$EXTMAX
 10
210.0
 20
297.0
 30
0.0
  9
$EXTMIN
 10
0.0
 20
0.0
 30
0.0
  9
$LIMMIN
 10
0.0
 20
0.0
  9
$LIMMAX
 10
210.0
 20
297.0
  9
$VIEWCTR
 10
105.0
 20
148.5
  9
$VIEWSIZE
 40
297.0
  9
$CLAYER
  8
0
  9
$LTSCALE
 40
19.36
  9
$CELTYPE
  6
BYLAYER
  9
$DIMSCALE
 40
1.0
  9
$DIMASZ
 40
4.76
  9
$DIMEXO
 40
0.1
  9
$DIMDLI
 40
13.376
  9
$DIMEXE
 40
1.0
  9
$DIMCEN
 40
3.168
  9
$DIMLFAC
 40
1.0
  9
$DIMBLK
  1
_FILLED
  9
$DIMALT
 70
0
  9
$DIMALTF
 40
0.0393700787
  9
$DIMTXT
 40
1.5
  9
$DIMTOL
 70
1
  9
$DIMLIM
 70
0
  9
$DIMTFAC
 40
1.0
  9
$DIMTP
 40
0.001
  9
$DIMTM
 40
0.001
  9
$DIMGAP
 40
0.625
  9
$DIMDSEP
 70
46
  9
$AUNITS
 70
0
  9
$PDMODE
 70
3
  9
$PDSIZE
 40
0.3125
  9
$HANDSEED
  5
42F
  9
$TILEMODE
 70
1
  9
$MEASUREMENT
 70
1
  9
$INSUNITS
 70
4
  0
ENDSEC
  0
SECTION
  2
CLASSES
  0
CLASS
  1
ACDBDICTIONARYWDFLT
  2
AcDbDictionaryWithDefault
  3
AutoCAD 2000
 90
0
 91
1
280
0
281
0
  0
CLASS
  1
ACDBPLACEHOLDER
  2
AcDbPlaceHolder
  3
AutoCAD 2000
 90
0
 91
1
280
0
281
0
  0
CLASS
  1
LAYOUT
  2
AcDbLayout
  3
AutoCAD 2000
 90
0
 91
0
280
0
281
0
  0
CLASS
  1
TABLESTYLE
  2
AcDbTableStyle
  3
ObjectDBX Classes
 90
2047
 91
1
280
0
281
0
  0
CLASS
  1
ACAD_TABLE
  2
AcDbTable
  3
ObjectDBX Classes
 90
1025
 91
1
280
0
281
1
  0
ENDSEC
  0
SECTION
  2
TABLES
  0
TABLE
  2
VPORT
  5
8
100
AcDbSymbolTable
 70
2
  0
VPORT
  5
1F4
100
AcDbSymbolTableRecord
100
AcDbViewportTableRecord
  2
*ACTIVE
 70
0
 10
0.0
 20
0.0
 11
1.0
 21
1.0
 12
105.0
 22
148.5
 13
0.0
 23
0.0
 14
1.0
 24
1.0
 15
0.0
 25
0.0
 16
0.0
 26
0.0
 36
1.0
 17
0.0
 27
0.0
 37
0.0
 40
297.0
 41
0.7070707071
 42
50.0
 43
0.0
 44
0.0
 50
0.0
 51
0.0
 71
0
 72
100
 73
1
 74
1
 75
0
 76
0
 77
0
 78
0
  0
ENDTAB
  0
TABLE
  2
LTYPE
  5
5
100
AcDbSymbolTable
 70
6
  0
LTYPE
  5
14
100
AcDbSymbolTableRecord
100
AcDbLinetypeTableRecord
  2
BYBLOCK
 70
0
  3

 72
65
 73
0
 40
0.0
  0
LTYPE
  5
15
100
AcDbSymbolTableRecord
100
AcDbLinetypeTableRecord
  2
BYLAYER
 70
0
  3

 72
65
 73
0
 40
0.0
  0
LTYPE
  5
16
100
AcDbSymbolTableRecord
100
AcDbLinetypeTableRecord
  2
CONTINUOUS
 70
64
  3
Solid line
 72
65
 73
0
 40
0.0
  0
LTYPE
  5
1F5
100
AcDbSymbolTableRecord
100
AcDbLinetypeTableRecord
  2
CENTER
 70
64
  3
____ _ ____ _ ____ _ ____ _ ____ _ ____ _ ____
 72
65
 73
4
 40
0.6
 49
0.375
 74
0
 49
-0.075
 74
0
 49
0.075
 74
0
 49
-0.075
 74
0
  0
LTYPE
  5
1F6
100
AcDbSymbolTableRecord
100
AcDbLinetypeTableRecord
  2
HIDDEN
 70
64
  3
- - - - - - - - - - - - - - - - - - - -
 72
65
 73
2
 40
0.2
 49
0.1
 74
0
 49
-0.1
 74
0
  0
LTYPE
  5
1F7
100
AcDbSymbolTableRecord
100
AcDbLinetypeTableRecord
  2
PHANTOM
 70
64
  3
_____ _ _ _____ _ _ _____ _ _ _____
 72
65
 73
6
 40
0.8
 49
0.45
 74
0
 49
-0.05
 74
0
 49
0.1
 74
0
 49
-0.05
 74
0
 49
0.1
 74
0
 49
-0.05
 74
0
  0
LTYPE
  5
1F8
100
AcDbSymbolTableRecord
100
AcDbLinetypeTableRecord
  2
DOT
 70
64
  3
. . . . . . . . . . . . . . . . . . . .
 72
65
 73
2
 40
0.2
 49
0.1
 74
0
 49
-0.1
 74
0
  0
LTYPE
  5
1F9
100
AcDbSymbolTableRecord
100
AcDbLinetypeTableRecord
  2
DASHED
 70
64
  3
- - - - - - - - - - - - - - - - - - - -
 72
65
 73
2
 40
0.2
 49
0.1
 74
0
 49
-0.1
 74
0
  0
ENDTAB
  0
TABLE
  2
LAYER
  5
2
100
AcDbSymbolTable
 70
36
  0
LAYER
  5
10
100
AcDbSymbolTableRecord
100
AcDbLayerTableRecord
  2
0
 70
0
 62
7
  6
CONTINUOUS
370
-3
390
F
  0
LAYER
  5
1FA
100
AcDbSymbolTableRecord
100
AcDbLayerTableRecord
  2
DEFAULT_1
 70
0
 62
7
  6
CENTER
370
-3
390
F
  0
LAYER
  5
1FB
100
AcDbSymbolTableRecord
100
AcDbLayerTableRecord
  2
DEFAULT_2
 70
0
 62
8
  6
HIDDEN
370
-3
390
F
  0
LAYER
  5
1FC
100
AcDbSymbolTableRecord
100
AcDbLayerTableRecord
  2
DEFAULT_3
 70
0
 62
7
  6
PHANTOM
370
-3
390
F
  0
LAYER
  5
1FD
100
AcDbSymbolTableRecord
100
AcDbLayerTableRecord
  2
0_COMPONENTS
 70
0
 62
7
  6
CONTINUOUS
370
-3
390
F
  0
LAYER
  5
1FE
100
AcDbSymbolTableRecord
100
AcDbLayerTableRecord
  2
1_ALL_PLANES
 70
0
 62
7
  6
CONTINUOUS
370
-3
390
F
  0
LAYER
  5
1FF
100
AcDbSymbolTableRecord
100
AcDbLayerTableRecord
  2
1__DEF_ASM_PLN
 70
0
 62
7
  6
CONTINUOUS
370
-3
390
F
  0
LAYER
  5
200
100
AcDbSymbolTableRecord
100
AcDbLayerTableRecord
  2
1__DEF_PLANES
 70
0
 62
7
  6
CONTINUOUS
370
-3
390
F
  0
LAYER
  5
201
100
AcDbSymbolTableRecord
100
AcDbLayerTableRecord
  2
2_ALL_CSYS
 70
0
 62
7
  6
CONTINUOUS
370
-3
390
F
  0
LAYER
  5
202
100
AcDbSymbolTableRecord
100
AcDbLayerTableRecord
  2
2__DEF_ASM_CSYS
 70
0
 62
7
  6
CONTINUOUS
370
-3
390
F
  0
LAYER
  5
203
100
AcDbSymbolTableRecord
100
AcDbLayerTableRecord
  2
2__DEF_CSYS
 70
0
 62
7
  6
CONTINUOUS
370
-3
390
F
  0
LAYER
  5
204
100
AcDbSymbolTableRecord
100
AcDbLayerTableRecord
  2
3_ALL_AXES
 70
0
 62
7
  6
CONTINUOUS
370
-3
390
F
  0
LAYER
  5
205
100
AcDbSymbolTableRecord
100
AcDbLayerTableRecord
  2
4_ALL_POINTS
 70
0
 62
7
  6
CONTINUOUS
370
-3
390
F
  0
LAYER
  5
206
100
AcDbSymbolTableRecord
100
AcDbLayerTableRecord
  2
5_ALL_CURVES
 70
0
 62
7
  6
CONTINUOUS
370
-3
390
F
  0
LAYER
  5
207
100
AcDbSymbolTableRecord
100
AcDbLayerTableRecord
  2
5_ALL_GTOLS(FREE)
 70
0
 62
7
  6
CONTINUOUS
370
-3
390
F
  0
LAYER
  5
208
100
AcDbSymbolTableRecord
100
AcDbLayerTableRecord
  2
6_ALL_SURFS
 70
0
 62
7
  6
CONTINUOUS
370
-3
390
F
  0
LAYER
  5
209
100
AcDbSymbolTableRecord
100
AcDbLayerTableRecord
  2
GIANNI_PIANI
 70
0
 62
7
  6
CONTINUOUS
370
-3
390
F
  0
LAYER
  5
20A
100
AcDbSymbolTableRecord
100
AcDbLayerTableRecord
  2
LAY0001
 70
0
 62
7
  6
CONTINUOUS
370
-3
390
F
  0
LAYER
  5
20B
100
AcDbSymbolTableRecord
100
AcDbLayerTableRecord
  2
PIANI
 70
0
 62
7
  6
CONTINUOUS
370
-3
390
F
  0
LAYER
  5
20C
100
AcDbSymbolTableRecord
100
AcDbLayerTableRecord
  2
SKETCH_CURVE
 70
0
 62
7
  6
CONTINUOUS
370
-3
390
F
  0
LAYER
  5
20D
100
AcDbSymbolTableRecord
100
AcDbLayerTableRecord
  2
XSEC_DATUMS
 70
0
 62
7
  6
CONTINUOUS
370
-3
390
F
  0
ENDTAB
  0
TABLE
  2
STYLE
  5
3
100
AcDbSymbolTable
 70
1
  0
STYLE
  5
11
100
AcDbSymbolTableRecord
100
AcDbTextStyleTableRecord
  2
STANDARD
 70
0
 40
0.0
 41
1.2
 50
0.0
 71
0
 42
0.2
  3
txt
  4

  0
STYLE
  5
20E
100
AcDbSymbolTableRecord
100
AcDbTextStyleTableRecord
  2
TEXTSTYLE_1
 70
0
 40
0.0
 41
0.8
 50
0.0
 71
0
 42
0.2
  3
gdt
  4

  0
STYLE
  5
20F
100
AcDbSymbolTableRecord
100
AcDbTextStyleTableRecord
  2
TEXTSTYLE_2
 70
0
 40
0.0
 41
1.0
 50
0.0
 71
0
 42
0.2
  3
txt
  4

  0
STYLE
  5
210
100
AcDbSymbolTableRecord
100
AcDbTextStyleTableRecord
  2
TEXTSTYLE_3
 70
0
 40
0.0
 41
1.0
 50
0.0
 71
0
 42
0.2
  3
txt
  4

  0
STYLE
  5
211
100
AcDbSymbolTableRecord
100
AcDbTextStyleTableRecord
  2
TEXTSTYLE_4
 70
0
 40
0.0
 41
1.0
 50
0.0
 71
0
 42
0.2
  3
txt
  4

  0
STYLE
  5
212
100
AcDbSymbolTableRecord
100
AcDbTextStyleTableRecord
  2
TEXTSTYLE_5
 70
0
 40
0.0
 41
1.0
 50
0.0
 71
0
 42
0.2
  3
bluprnt.ttf
  4

  0
STYLE
  5
213
100
AcDbSymbolTableRecord
100
AcDbTextStyleTableRecord
  2
TEXTSTYLE_6
 70
0
 40
0.0
 41
1.0
 50
0.0
 71
0
 42
0.2
  3
bluprntb.ttf
  4

  0
STYLE
  5
214
100
AcDbSymbolTableRecord
100
AcDbTextStyleTableRecord
  2
TEXTSTYLE_7
 70
0
 40
0.0
 41
1.0
 50
0.0
 71
0
 42
0.2
  3
gdt
  4

  0
ENDTAB
  0
TABLE
  2
VIEW
  5
6
100
AcDbSymbolTable
 70
0
  0
ENDTAB
  0
TABLE
  2
UCS
  5
7
100
AcDbSymbolTable
 70
0
  0
ENDTAB
  0
TABLE
  2
APPID
  5
9
100
AcDbSymbolTable
 70
1
  0
APPID
  5
215
100
AcDbSymbolTableRecord
100
AcDbRegAppTableRecord
  2
ACAD
 70
0
  0
ENDTAB
  0
TABLE
  2
BLOCK_RECORD
  5
1
100
AcDbSymbolTable
 70
0
  0
BLOCK_RECORD
  5
216
100
AcDbSymbolTableRecord
100
AcDbBlockTableRecord
  2
*Model_Space
  0
BLOCK_RECORD
  5
217
100
AcDbSymbolTableRecord
100
AcDbBlockTableRecord
  2
*Paper_Space
  0
BLOCK_RECORD
  5
218
100
AcDbSymbolTableRecord
100
AcDbBlockTableRecord
  2
_FILLED
  0
BLOCK_RECORD
  5
219
100
AcDbSymbolTableRecord
100
AcDbBlockTableRecord
  2
*T1
  0
ENDTAB
  0
TABLE
  2
DIMSTYLE
  5
A
100
AcDbSymbolTable
 70
1
100
AcDbDimStyleTable
 71
0
  0
DIMSTYLE
105
21A
100
AcDbSymbolTableRecord
100
AcDbDimStyleTableRecord
  2
STANDARD
 70
0
  3

  4

 40
1.0
 41
4.76
 42
0.1
 43
0.38
 44
1.0
 45
0.0
 46
0.0
 47
0.001
 48
0.001
140
1.5
141
0.09
142
0.0
143
25.4
144
1.0
145
0.0
146
1.0
147
0.625
 71
1.0
 72
0.0
 73
0
 74
0
 75
0
 76
0
 77
1
 78
8
 79
2
170
0
171
2
172
0
173
0
174
0
175
0
176
0
177
0
178
5
270
2
179
3
271
3
272
3
273
2
274
2
275
0
280
0
281
0
282
0
283
1
284
8
285
0
286
0
287
3
288
0
340
11
278
46
341
218
342
218
343
218
344
218
  0
ENDTAB
  0
ENDSEC
  0
SECTION
  2
BLOCKS
  0
BLOCK
  5
20
100
AcDbEntity
  8
0
100
AcDbBlockBegin
  2
*Model_Space
 70
0
 10
0.0
 20
0.0
 30
0.0
  3
*Model_Space
  1

  0
ENDBLK
  5
21
100
AcDbEntity
  8
0
100
AcDbBlockEnd
  0
BLOCK
  5
1C
100
AcDbEntity
  8
0
100
AcDbBlockBegin
  2
*Paper_Space
 70
0
 10
0.0
 20
0.0
 30
0.0
  3
*Paper_Space
  1

  0
ENDBLK
  5
1D
100
AcDbEntity
  8
0
100
AcDbBlockEnd
  0
BLOCK
  5
21B
100
AcDbEntity
  8
0
100
AcDbBlockBegin
  2
_FILLED
 70
64
 10
0.0
 20
0.0
  3
_FILLED
  1

  0
SOLID
  5
21C
100
AcDbEntity
  8
0
  6
BYBLOCK
 62
0
100
AcDbTrace
 10
0.0
 20
0.0
 11
-1.0
 21
0.1050420168
 12
-1.0
 22
-0.1050420168
 13
-1.0
 23
-0.1050420168
  0
ENDBLK
  5
21D
100
AcDbEntity
  8
0
  6
BYBLOCK
 62
0
100
AcDbBlockEnd
  0
BLOCK
  5
21E
100
AcDbEntity
  8
0
100
AcDbBlockBegin
  2
*T1
 70
1
 10
0.0
 20
0.0
  3
*T1
  1

  0
LINE
  5
21F
100
AcDbEntity
  8
0
100
AcDbLine
 62
2
  6
CONTINUOUS
 10
200.0
 20
0.0
 11
0.0
 21
0.0
  0
LINE
  5
220
100
AcDbEntity
  8
0
100
AcDbLine
 62
2
  6
CONTINUOUS
 10
200.0
 20
0.0
 11
200.0
 21
40.0
  0
LINE
  5
221
100
AcDbEntity
  8
0
100
AcDbLine
 62
2
  6
CONTINUOUS
 10
110.5
 20
5.0
 11
0.0
 21
5.0
  0
LINE
  5
222
100
AcDbEntity
  8
0
100
AcDbLine
 62
2
  6
CONTINUOUS
 10
200.0
 20
10.0
 11
0.0
 21
10.0
  0
LINE
  5
223
100
AcDbEntity
  8
0
100
AcDbLine
 62
2
  6
CONTINUOUS
 10
28.5
 20
15.0
 11
0.0
 21
15.0
  0
LINE
  5
224
100
AcDbEntity
  8
0
100
AcDbLine
 62
2
  6
CONTINUOUS
 10
162.5
 20
20.0
 11
0.0
 21
20.0
  0
LINE
  5
225
100
AcDbEntity
  8
0
100
AcDbLine
 62
2
  6
CONTINUOUS
 10
28.5
 20
25.0
 11
0.0
 21
25.0
  0
LINE
  5
226
100
AcDbEntity
  8
0
100
AcDbLine
 62
2
  6
CONTINUOUS
 10
162.5
 20
30.0
 11
0.0
 21
30.0
  0
LINE
  5
227
100
AcDbEntity
  8
0
100
AcDbLine
 62
2
  6
CONTINUOUS
 10
200.0
 20
35.0
 11
162.5
 21
35.0
  0
LINE
  5
228
100
AcDbEntity
  8
0
100
AcDbLine
 62
2
  6
CONTINUOUS
 10
128.5
 20
35.0
 11
0.0
 21
35.0
  0
LINE
  5
229
100
AcDbEntity
  8
0
100
AcDbLine
 62
2
  6
CONTINUOUS
 10
200.0
 20
40.0
 11
0.0
 21
40.0
  0
LINE
  5
22A
100
AcDbEntity
  8
0
100
AcDbLine
 62
2
  6
CONTINUOUS
 10
191.5
 20
0.0
 11
191.5
 21
10.0
  0
LINE
  5
22B
100
AcDbEntity
  8
0
100
AcDbLine
 62
2
  6
CONTINUOUS
 10
180.5
 20
10.0
 11
180.5
 21
35.0
  0
LINE
  5
22C
100
AcDbEntity
  8
0
100
AcDbLine
 62
2
  6
CONTINUOUS
 10
162.5
 20
10.0
 11
162.5
 21
40.0
  0
LINE
  5
22D
100
AcDbEntity
  8
0
100
AcDbLine
 62
2
  6
CONTINUOUS
 10
145.5
 20
0.0
 11
145.5
 21
40.0
  0
LINE
  5
22E
100
AcDbEntity
  8
0
100
AcDbLine
 62
2
  6
CONTINUOUS
 10
128.5
 20
0.0
 11
128.5
 21
10.0
  0
LINE
  5
22F
100
AcDbEntity
  8
0
100
AcDbLine
 62
2
  6
CONTINUOUS
 10
128.5
 20
20.0
 11
128.5
 21
40.0
  0
LINE
  5
230
100
AcDbEntity
  8
0
100
AcDbLine
 62
2
  6
CONTINUOUS
 10
110.5
 20
0.0
 11
110.5
 21
10.0
  0
LINE
  5
231
100
AcDbEntity
  8
0
100
AcDbLine
 62
2
  6
CONTINUOUS
 10
108.5
 20
10.0
 11
108.5
 21
20.0
  0
LINE
  5
232
100
AcDbEntity
  8
0
100
AcDbLine
 62
2
  6
CONTINUOUS
 10
100.5
 20
10.0
 11
100.5
 21
20.0
  0
LINE
  5
233
100
AcDbEntity
  8
0
100
AcDbLine
 62
2
  6
CONTINUOUS
 10
56.5
 20
10.0
 11
56.5
 21
20.0
  0
LINE
  5
234
100
AcDbEntity
  8
0
100
AcDbLine
 62
2
  6
CONTINUOUS
 10
28.5
 20
0.0
 11
28.5
 21
40.0
  0
LINE
  5
235
100
AcDbEntity
  8
0
100
AcDbLine
 62
2
  6
CONTINUOUS
 10
23.5
 20
5.0
 11
23.5
 21
40.0
  0
LINE
  5
236
100
AcDbEntity
  8
0
100
AcDbLine
 62
2
  6
CONTINUOUS
 10
8.5
 20
5.0
 11
8.5
 21
40.0
  0
LINE
  5
237
100
AcDbEntity
  8
0
100
AcDbLine
 62
2
  6
CONTINUOUS
 10
0.0
 20
0.0
 11
0.0
 21
40.0
  0
MTEXT
  5
238
100
AcDbEntity
  8
0
100
AcDbMText
 62
5
  6
CONTINUOUS
  7
TEXTSTYLE_2
 71
3
 72
1
 10
190.0
 20
4.5
 30
0.0
 11
1.0
 21
0.0
 31
0.0
 73
2
 44
0.9
  1
21880/50BT-B
 40
3.0
 41
55.8571428571
  0
MTEXT
  5
239
100
AcDbEntity
  8
0
100
AcDbMText
 62
5
  6
CONTINUOUS
  7
TEXTSTYLE_3
 71
1
 72
1
 10
130.0
 20
6.8125
 30
0.0
 11
1.0
 21
0.0
 31
0.0
 73
2
 44
0.9
  1
Peso finito \P10.746
 40
1.3
 41
29.6
  0
MTEXT
  5
23A
100
AcDbEntity
  8
0
100
AcDbMText
 62
5
  6
CONTINUOUS
  7
TEXTSTYLE_4
 71
2
 72
1
 10
119.5
 20
6.5
 30
0.0
 11
1.0
 21
0.0
 31
0.0
 73
2
 44
0.9
  1
A4 V
 40
3.0
 41
24.0
  0
MTEXT
  5
23B
100
AcDbEntity
  8
0
100
AcDbMText
 62
5
  6
CONTINUOUS
  7
TEXTSTYLE_3
 71
1
 72
1
 10
30.0
 20
2.8076923077
 30
0.0
 11
1.0
 21
0.0
 31
0.0
 73
2
 44
0.9
  1
La ditta tutela i propri disegni a norma di legge
 40
1.2
 41
113.1692307692
  0
MTEXT
  5
23C
100
AcDbEntity
  8
0
100
AcDbMText
 62
5
  6
CONTINUOUS
  7
TEXTSTYLE_3
 71
2
 72
1
 10
14.25
 20
2.9230769231
 30
0.0
 11
1.0
 21
0.0
 31
0.0
 73
2
 44
0.9
  1
Modifica
 40
2.0
 41
30.1538461538
  0
MTEXT
  5
23D
100
AcDbEntity
  8
0
100
AcDbMText
 62
5
  6
CONTINUOUS
  7
TEXTSTYLE_3
 71
2
 72
1
 10
195.75
 20
7.75
 30
0.0
 11
1.0
 21
0.0
 31
0.0
 73
2
 44
0.9
  1
esp.
 40
1.3
 41
10.6
  0
MTEXT
  5
23E
100
AcDbEntity
  8
0
100
AcDbMText
 62
5
  6
CONTINUOUS
  7
TEXTSTYLE_3
 71
2
 72
1
 10
168.5
 20
7.75
 30
0.0
 11
1.0
 21
0.0
 31
0.0
 73
2
 44
0.9
  1
cod.disegno
 40
1.3
 41
28.4
  0
MTEXT
  5
23F
100
AcDbEntity
  8
0
100
AcDbMText
 62
5
  6
CONTINUOUS
  7
TEXTSTYLE_3
 71
1
 72
1
 10
30.0
 20
7.5769230769
 30
0.0
 11
1.0
 21
0.0
 31
0.0
 73
2
 44
0.9
  1
Cod.Cad 21880-50BT-B
 40
1.6
 41
74.5846153846
  0
MTEXT
  5
240
100
AcDbEntity
  8
0
100
AcDbMText
 62
5
  6
CONTINUOUS
  7
TEXTSTYLE_3
 71
2
 72
1
 10
26.0
 20
7.75
 30
0.0
 11
1.0
 21
0.0
 31
0.0
 73
2
 44
0.9
  1
Esp
 40
1.3
 41
8.6
  0
MTEXT
  5
241
100
AcDbEntity
  8
0
100
AcDbMText
 62
5
  6
CONTINUOUS
  7
TEXTSTYLE_3
 71
2
 72
1
 10
16.0
 20
7.75
 30
0.0
 11
1.0
 21
0.0
 31
0.0
 73
2
 44
0.9
  1
DATA
 40
1.3
 41
14.0
  0
MTEXT
  5
242
100
AcDbEntity
  8
0
100
AcDbMText
 62
5
  6
CONTINUOUS
  7
TEXTSTYLE_3
 71
2
 72
1
 10
4.25
 20
7.75
 30
0.0
 11
1.0
 21
0.0
 31
0.0
 73
2
 44
0.9
  1
N°
 40
1.3
 41
5.8
  0
MTEXT
  5
243
100
AcDbEntity
  8
0
100
AcDbMText
 62
5
  6
CONTINUOUS
  7
TEXTSTYLE_2
 71
2
 72
1
 10
104.5
 20
17.0
 30
0.0
 11
1.0
 21
0.0
 31
0.0
 73
2
 44
0.9
  1
00
 40
4.0
 41
12.5714285714
  0
MTEXT
  5
244
100
AcDbEntity
  8
0
100
AcDbMText
 62
5
  6
CONTINUOUS
  7
TEXTSTYLE_3
 71
1
 72
1
 10
58.0
 20
12.775
 30
0.0
 11
1.0
 21
0.0
 31
0.0
 73
2
 44
0.9
  1
---
 40
1.3
 41
8.4
  0
MTEXT
  5
245
100
AcDbEntity
  8
0
100
AcDbMText
 62
5
  6
CONTINUOUS
  7
TEXTSTYLE_3
 71
1
 72
1
 10
30.0
 20
12.8384615385
 30
0.0
 11
1.0
 21
0.0
 31
0.0
 73
2
 44
0.9
  1
--
 40
1.6
 41
6.8923076923
  0
MTEXT
  5
246
100
AcDbEntity
  8
0
100
AcDbMText
 62
5
  6
CONTINUOUS
  7
TEXTSTYLE_3
 71
1
 72
1
 10
147.0
 20
17.7115384615
 30
0.0
 11
1.0
 21
0.0
 31
0.0
 73
2
 44
0.9
  1
Peso grezzo Kg. 
 40
1.0
 41
34.6153846154
  0
MTEXT
  5
247
100
AcDbEntity
  8
0
100
AcDbMText
 62
5
  6
CONTINUOUS
  7
TEXTSTYLE_3
 71
1
 72
1
 10
110.0
 20
17.775
 30
0.0
 11
1.0
 21
0.0
 31
0.0
 73
2
 44
0.9
  1
Dimens.grezze 
 40
1.3
 41
37.8
  0
MTEXT
  5
248
100
AcDbEntity
  8
0
100
AcDbMText
 62
5
  6
CONTINUOUS
  7
TEXTSTYLE_3
 71
1
 72
1
 10
58.0
 20
17.8173076923
 30
0.0
 11
1.0
 21
0.0
 31
0.0
 73
2
 44
0.9
  1
Tratt.termici
 40
1.5
 41
35.0769230769
  0
MTEXT
  5
249
100
AcDbEntity
  8
0
100
AcDbMText
 62
5
  6
CONTINUOUS
  7
TEXTSTYLE_3
 71
1
 72
1
 10
30.0
 20
17.775
 30
0.0
 11
1.0
 21
0.0
 31
0.0
 73
2
 44
0.9
  1
Materiale 
 40
1.3
 41
24.4
  0
MTEXT
  5
24A
100
AcDbEntity
  8
0
100
AcDbMText
 62
5
  6
CONTINUOUS
  7
TEXTSTYLE_3
 71
1
 72
1
 10
147.0
 20
27.75
 30
0.0
 11
1.0
 21
0.0
 31
0.0
 73
2
 44
1.2
  1
Scala\P1:1
 40
1.3
 41
12.8
  0
MTEXT
  5
24B
100
AcDbEntity
  8
0
100
AcDbMText
 62
5
  6
CONTINUOUS
  7
TEXTSTYLE_3
 71
1
 72
1
 10
130.0
 20
27.75
 30
0.0
 11
1.0
 21
0.0
 31
0.0
 73
2
 44
1.2
  1
Visto
 40
1.3
 41
12.0
  0
MTEXT
  5
24C
100
AcDbEntity
  8
0
100
AcDbMText
 62
5
  6
CONTINUOUS
  7
TEXTSTYLE_3
 71
1
 72
1
 10
30.0
 20
23.0
 30
0.0
 11
1.0
 21
0.0
 31
0.0
 73
2
 44
0.9
  1
mandrino serie 21880 attacco MAS-BT50
 40
1.5
 41
121.3846153846
  0
MTEXT
  5
24D
100
AcDbEntity
  8
0
100
AcDbMText
 62
5
  6
CONTINUOUS
  7
TEXTSTYLE_3
 71
1
 72
1
 10
30.0
 20
27.8076923077
 30
0.0
 11
1.0
 21
0.0
 31
0.0
 73
2
 44
0.9
  1
Descrizione
 40
1.2
 41
24.5538461538
  0
MTEXT
  5
24E
100
AcDbEntity
  8
0
100
AcDbMText
 62
5
  6
CONTINUOUS
  7
TEXTSTYLE_3
 71
1
 72
1
 10
147.0
 20
37.75
 30
0.0
 11
1.0
 21
0.0
 31
0.0
 73
2
 44
1.2
  1
Data\P15-06-2021
 40
1.3
 41
28.5
  0
MTEXT
  5
24F
100
AcDbEntity
  8
0
100
AcDbMText
 62
5
  6
CONTINUOUS
  7
TEXTSTYLE_3
 71
1
 72
1
 10
130.0
 20
37.75
 30
0.0
 11
1.0
 21
0.0
 31
0.0
 73
2
 44
1.2
  1
Firma\PMarchisio
 40
1.3
 41
21.8
  0
MTEXT
  5
250
100
AcDbEntity
  8
0
100
AcDbMText
 62
5
  6
CONTINUOUS
  7
TEXTSTYLE_3
 71
1
 72
1
 10
30.0
 20
32.775
 30
0.0
 11
1.0
 21
0.0
 31
0.0
 73
2
 44
0.9
  1
Macchina o codice prenotante:   21880
 40
1.3
 41
100.3
  0
MTEXT
  5
251
100
AcDbEntity
  8
0
100
AcDbMText
 62
5
  6
CONTINUOUS
  7
TEXTSTYLE_3
 71
1
 72
1
 10
164.0
 20
37.75
 30
0.0
 11
1.0
 21
0.0
 31
0.0
 73
2
 44
0.9
  1
Rugosita' \fgdt;{\fgdt;a}\ftxt;0.8=rettifica
 40
1.3
 41
60.575
  0
MTEXT
  5
252
100
AcDbEntity
  8
0
100
AcDbMText
 62
5
  6
CONTINUOUS
  7
TEXTSTYLE_3
 71
1
 72
1
 10
30.0
 20
37.75
 30
0.0
 11
1.0
 21
0.0
 31
0.0
 73
2
 44
0.9
  1
Tolleranze generali per quote senza valori:\fgdt;{\fgdt;n}\ftxt;=H11-h11 - lineari\fgdt;{\fgdt;`}\ftxt;0.2
 40
1.3
 41
162.2
  0
ENDBLK
  5
253
100
AcDbEntity
  8
0
  6
BYBLOCK
 62
0
100
AcDbBlockEnd
  0
ENDSEC
  0
SECTION
  2
ENTITIES
  0
HATCH
  5
254
100
AcDbEntity
  8
0
100
AcDbHatch
 62
2
  6
CONTINUOUS
 10
0.0
 20
0.0
 30
0.0
210
0.0
220
0.0
230
1.0
  2
B
 70
0
 71
0
 91
2
 92
1
 93
2
 72
2
 10
83.7328216712
 20
115.8076860023
 40
1.765
 50
180.0
 51
360.0
 73
1
 72
2
 10
83.7328216712
 20
115.8076860023
 40
1.765
 50
0.0
 51
180.0
 73
1
 97
0
 92
1
 93
2
 72
2
 10
129.6628216712
 20
115.8076860023
 40
1.765
 50
180.0
 51
360.0
 73
1
 72
2
 10
129.6628216712
 20
115.8076860023
 40
1.765
 50
0.0
 51
180.0
 73
1
 97
0
 75
0
 76
0
 52
205.0
 41
1.1754639314
 77
0
 78
1
 53
205.0
 43
0.0
 44
0.0
 45
0.4967725234
 46
-1.0653321144
 79
0
 98
1
 10
0.0
 20
0.0
  0
HATCH
  5
255
100
AcDbEntity
  8
0
100
AcDbHatch
 62
2
  6
CONTINUOUS
 10
0.0
 20
0.0
 30
0.0
210
0.0
220
0.0
230
1.0
  2
default__1
 70
0
 71
0
 91
4
 92
1
 93
43
 72
1
 10
155.6978216712
 20
148.0703585881
 11
140.7478216712
 21
148.0703585881
 72
2
 10
140.7478216712
 20
147.2703585881
 40
0.8
 50
90.0000000002
 51
180.0
 73
1
 72
1
 10
139.9478216712
 20
147.2703585881
 11
139.9478216712
 21
137.5703585881
 72
1
 10
139.9478216712
 20
137.5703585881
 11
139.4478216712
 21
137.0703585881
 72
1
 10
139.4478216712
 20
137.0703585881
 11
136.0478216712
 21
137.0703585881
 72
1
 10
136.0478216712
 20
117.3301662093
 11
136.0478216712
 21
137.0703585881
 72
1
 10
136.1978216712
 20
117.0703585881
 11
136.0478216712
 21
117.3301662093
 72
1
 10
136.1978216712
 20
117.0703585881
 11
136.1978216712
 21
112.4703585881
 72
1
 10
136.1978216712
 20
112.4703585881
 11
132.2450609401
 21
112.4703585881
 72
2
 10
132.2450609401
 20
108.3703585881
 40
4.1
 50
90.0
 51
112.1712052998
 73
1
 72
1
 10
130.6978216712
 20
114.0703585881
 11
130.6978216712
 21
112.1672060495
 72
1
 10
130.6978216712
 20
114.0703585881
 11
131.4478216712
 21
115.3693966938
 72
1
 10
131.4478216712
 20
115.3693966938
 11
131.4478216712
 21
119.617730644
 72
1
 10
131.4478216712
 20
119.617730644
 11
130.8978216712
 21
120.5703585881
 72
1
 10
130.8978216712
 20
120.5703585881
 11
130.8978216712
 21
124.0703585881
 72
1
 10
130.8978216712
 20
124.0703585881
 11
122.1978216712
 21
124.0703585881
 72
1
 10
122.1978216712
 20
124.0703585881
 11
121.1978216712
 21
125.0703585881
 72
1
 10
121.1978216712
 20
125.0703585881
 11
121.1978216712
 21
131.0703585881
 72
1
 10
113.1978216712
 20
131.0703585881
 11
121.1978216712
 21
131.0703585881
 72
2
 10
113.1978216712
 20
131.5703585881
 40
0.5
 50
180.0
 51
270.0000001879
 73
1
 72
1
 10
112.6978216712
 20
131.5703585881
 11
112.6978216712
 21
230.2145473499
 72
1
 10
112.6978216712
 20
230.2145473499
 11
117.2978216712
 21
232.8703585881
 72
1
 10
117.2978216712
 20
232.8703585881
 11
117.2978216712
 21
273.1290555094
 72
1
 10
117.2978216712
 20
273.1290555094
 11
119.4478216712
 21
274.3703585881
 72
1
 10
119.4478216712
 20
274.3703585881
 11
119.4478216712
 21
279.9373458863
 72
1
 10
119.4478216712
 20
279.9373458863
 11
119.1978216712
 21
280.3703585881
 72
1
 10
119.1978216712
 20
280.3703585881
 11
119.1978216712
 21
285.8703585881
 72
2
 10
121.1978216712
 20
285.8703585881
 40
2.0
 50
90.0
 51
180.0
 73
1
 72
1
 10
125.0477581619
 20
287.8703585881
 11
121.1978216712
 21
287.8703585881
 72
2
 10
125.0477581619
 20
285.8703585881
 40
2.0
 50
8.297
 51
90.0
 73
1
 72
1
 10
127.0268248543
 20
286.1589673669
 11
141.6228216712
 21
186.0703585881
 72
1
 10
141.6228216712
 20
186.0703585881
 11
141.3478216712
 21
185.5940446161
 72
1
 10
141.3478216712
 20
185.5940446161
 11
141.3478216712
 21
183.0703585881
 72
1
 10
155.6978216712
 20
183.0703585881
 11
141.3478216712
 21
183.0703585881
 72
1
 10
155.6978216712
 20
183.0703585881
 11
156.6978216712
 21
182.0703585881
 72
1
 10
156.6978216712
 20
182.0703585881
 11
156.6978216712
 21
170.4076663524
 72
1
 10
150.5710249014
 20
166.8703585881
 11
156.6978216712
 21
170.4076663524
 72
1
 10
149.1978216712
 20
166.8703585881
 11
150.5710249014
 21
166.8703585881
 72
1
 10
149.1978216712
 20
158.8703585881
 11
149.1978216712
 21
166.8703585881
 72
1
 10
149.1978216712
 20
158.8703585881
 11
150.5710249014
 21
158.8703585881
 72
1
 10
156.6978216712
 20
155.3330508239
 11
150.5710249014
 21
158.8703585881
 72
1
 10
156.6978216712
 20
155.3330508239
 11
156.6978216712
 21
149.0703585881
 72
1
 10
156.6978216712
 20
149.0703585881
 11
155.6978216712
 21
148.0703585881
 97
0
 92
1
 93
43
 72
1
 10
72.6478216712
 20
148.0703585881
 11
57.6978216712
 21
148.0703585881
 72
1
 10
56.6978216712
 20
149.0703585881
 11
57.6978216712
 21
148.0703585881
 72
1
 10
56.6978216712
 20
155.3330508239
 11
56.6978216712
 21
149.0703585881
 72
1
 10
56.6978216712
 20
155.3330508239
 11
62.8246184409
 21
158.8703585881
 72
1
 10
62.8246184409
 20
158.8703585881
 11
64.1978216712
 21
158.8703585881
 72
1
 10
64.1978216712
 20
158.8703585881
 11
64.1978216712
 21
166.8703585881
 72
1
 10
62.8246184409
 20
166.8703585881
 11
64.1978216712
 21
166.8703585881
 72
1
 10
62.8246184409
 20
166.8703585881
 11
56.6978216712
 21
170.4076663524
 72
1
 10
56.6978216712
 20
182.0703585881
 11
56.6978216712
 21
170.4076663524
 72
1
 10
57.6978216712
 20
183.0703585881
 11
56.6978216712
 21
182.0703585881
 72
1
 10
72.0478216712
 20
183.0703585881
 11
57.6978216712
 21
183.0703585881
 72
1
 10
72.0478216712
 20
185.5940446161
 11
72.0478216712
 21
183.0703585881
 72
1
 10
71.7728216712
 20
186.0703585881
 11
72.0478216712
 21
185.5940446161
 72
1
 10
86.368818488
 20
286.1589673669
 11
71.7728216712
 21
186.0703585881
 72
2
 10
88.3478851804
 20
285.8703585881
 40
2.0
 50
90.0
 51
171.703
 73
1
 72
1
 10
92.1978216712
 20
287.8703585881
 11
88.3478851804
 21
287.8703585881
 72
2
 10
92.1978216712
 20
285.8703585881
 40
2.0
 50
0.0
 51
90.0
 73
1
 72
1
 10
94.1978216712
 20
280.3703585881
 11
94.1978216712
 21
285.8703585881
 72
1
 10
93.9478216712
 20
279.9373458863
 11
94.1978216712
 21
280.3703585881
 72
1
 10
93.9478216712
 20
274.3703585881
 11
93.9478216712
 21
279.9373458863
 72
1
 10
96.0978216712
 20
273.1290555094
 11
93.9478216712
 21
274.3703585881
 72
1
 10
96.0978216712
 20
232.8703585881
 11
96.0978216712
 21
273.1290555094
 72
1
 10
100.6978216712
 20
230.2145473499
 11
96.0978216712
 21
232.8703585881
 72
1
 10
100.6978216712
 20
131.5703585881
 11
100.6978216712
 21
230.2145473499
 72
2
 10
100.1978216712
 20
131.5703585881
 40
0.5
 50
269.999999815
 51
360.0
 73
1
 72
1
 10
92.1978216712
 20
131.0703585881
 11
100.1978216712
 21
131.0703585881
 72
1
 10
92.1978216712
 20
125.0703585881
 11
92.1978216712
 21
131.0703585881
 72
1
 10
91.1978216712
 20
124.0703585881
 11
92.1978216712
 21
125.0703585881
 72
1
 10
91.1978216712
 20
124.0703585881
 11
82.4978216712
 21
124.0703585881
 72
1
 10
82.4978216712
 20
120.5703585881
 11
82.4978216712
 21
124.0703585881
 72
1
 10
81.9478216712
 20
119.617730644
 11
82.4978216712
 21
120.5703585881
 72
1
 10
81.9478216712
 20
115.3693966938
 11
81.9478216712
 21
119.617730644
 72
1
 10
82.6978216712
 20
114.0703585881
 11
81.9478216712
 21
115.3693966938
 72
1
 10
82.6978216712
 20
114.0703585881
 11
82.6978216712
 21
112.1672060495
 72
2
 10
81.1505824022
 20
108.3703585881
 40
4.1
 50
67.8287947002
 51
90.0
 73
1
 72
1
 10
81.1505824022
 20
112.4703585881
 11
77.1978216712
 21
112.4703585881
 72
1
 10
77.1978216712
 20
117.0703585881
 11
77.1978216712
 21
112.4703585881
 72
1
 10
77.1978216712
 20
117.0703585881
 11
77.3478216712
 21
117.3301662093
 72
1
 10
77.3478216712
 20
117.3301662093
 11
77.3478216712
 21
137.0703585881
 72
1
 10
77.3478216712
 20
137.0703585881
 11
73.9478216712
 21
137.0703585881
 72
1
 10
73.4478216712
 20
137.5703585881
 11
73.9478216712
 21
137.0703585881
 72
1
 10
73.4478216712
 20
147.2703585881
 11
73.4478216712
 21
137.5703585881
 72
2
 10
72.6478216712
 20
147.2703585881
 40
0.8
 50
0.0
 51
89.9999999994
 73
1
 97
0
 92
1
 93
9
 72
1
 10
130.6978216712
 20
104.5735111268
 11
130.6978216712
 21
68.7703585881
 72
2
 10
132.2450609401
 20
108.3703585881
 40
4.1
 50
247.8287947002
 51
270.0
 73
1
 72
1
 10
136.1978216712
 20
104.2703585881
 11
132.2450609401
 21
104.2703585881
 72
1
 10
136.1978216712
 20
104.2703585881
 11
136.1978216712
 21
73.0703585881
 72
1
 10
134.9478216712
 20
73.0703585881
 11
136.1978216712
 21
73.0703585881
 72
1
 10
134.9478216712
 20
70.0703585881
 11
134.9478216712
 21
73.0703585881
 72
1
 10
134.9478216712
 20
70.0703585881
 11
136.1978216712
 21
70.0703585881
 72
1
 10
136.1978216712
 20
70.0703585881
 11
136.1978216712
 21
68.7703585881
 72
1
 10
136.1978216712
 20
68.7703585881
 11
130.6978216712
 21
68.7703585881
 97
0
 92
1
 93
9
 72
1
 10
82.6978216712
 20
104.5735111268
 11
82.6978216712
 21
68.7703585881
 72
1
 10
82.6978216712
 20
68.7703585881
 11
77.1978216712
 21
68.7703585881
 72
1
 10
77.1978216712
 20
70.0703585881
 11
77.1978216712
 21
68.7703585881
 72
1
 10
77.1978216712
 20
70.0703585881
 11
78.4478216712
 21
70.0703585881
 72
1
 10
78.4478216712
 20
70.0703585881
 11
78.4478216712
 21
73.0703585881
 72
1
 10
77.1978216712
 20
73.0703585881
 11
78.4478216712
 21
73.0703585881
 72
1
 10
77.1978216712
 20
104.2703585881
 11
77.1978216712
 21
73.0703585881
 72
1
 10
81.1505824022
 20
104.2703585881
 11
77.1978216712
 21
104.2703585881
 72
2
 10
81.1505824022
 20
108.3703585881
 40
4.1
 50
270.0
 51
292.1712052998
 73
1
 97
0
 75
0
 76
0
 52
245.0
 41
10.547561067
 77
0
 78
1
 53
245.0
 43
0.0
 44
0.0
 45
9.5593367292
 46
-4.4575919237
 79
0
 98
1
 10
0.0
 20
0.0
  0
HATCH
  5
256
100
AcDbEntity
  8
0
100
AcDbHatch
 62
2
  6
CONTINUOUS
 10
0.0
 20
0.0
 30
0.0
210
0.0
220
0.0
230
1.0
  2
default__2
 70
0
 71
0
 91
2
 92
1
 93
17
 72
1
 10
140.1978216712
 20
139.0703585881
 11
140.1978216712
 21
112.0703585881
 72
1
 10
142.6978216712
 20
139.0703585881
 11
140.1978216712
 21
139.0703585881
 72
1
 10
142.6978216712
 20
139.0703585881
 11
142.6978216712
 21
114.0703585881
 72
1
 10
142.6978216712
 20
114.0703585881
 11
142.8478216712
 21
113.810550967
 72
1
 10
142.8478216712
 20
113.810550967
 11
142.8478216712
 21
86.3301662093
 72
1
 10
142.8478216712
 20
86.3301662093
 11
142.6978216712
 21
86.0703585881
 72
1
 10
142.6978216712
 20
86.0703585881
 11
142.6978216712
 21
64.0703585881
 72
1
 10
142.6978216712
 20
64.0703585881
 11
141.4478216712
 21
61.0703585881
 72
1
 10
141.4478216712
 20
61.0703585881
 11
138.9478216712
 21
61.0703585881
 72
1
 10
138.1978216712
 20
71.806256973
 11
138.9478216712
 21
61.0703585881
 72
1
 10
136.1978216712
 20
75.2703585881
 11
138.1978216712
 21
71.806256973
 72
1
 10
136.1978216712
 20
94.0703585881
 11
136.1978216712
 21
75.2703585881
 72
1
 10
139.1978216712
 20
94.0703585881
 11
136.1978216712
 21
94.0703585881
 72
1
 10
139.1978216712
 20
104.0703585881
 11
139.1978216712
 21
94.0703585881
 72
1
 10
139.1978216712
 20
104.0703585881
 11
136.1978216712
 21
104.0703585881
 72
1
 10
136.1978216712
 20
112.0703585881
 11
136.1978216712
 21
104.0703585881
 72
1
 10
140.1978216712
 20
112.0703585881
 11
136.1978216712
 21
112.0703585881
 97
0
 92
1
 93
17
 72
1
 10
73.1978216712
 20
139.0703585881
 11
73.1978216712
 21
112.0703585881
 72
1
 10
77.1978216712
 20
112.0703585881
 11
73.1978216712
 21
112.0703585881
 72
1
 10
77.1978216712
 20
112.0703585881
 11
77.1978216712
 21
104.0703585881
 72
1
 10
77.1978216712
 20
104.0703585881
 11
74.1978216712
 21
104.0703585881
 72
1
 10
74.1978216712
 20
104.0703585881
 11
74.1978216712
 21
94.0703585881
 72
1
 10
77.1978216712
 20
94.0703585881
 11
74.1978216712
 21
94.0703585881
 72
1
 10
77.1978216712
 20
94.0703585881
 11
77.1978216712
 21
75.2703585881
 72
1
 10
77.1978216712
 20
75.2703585881
 11
75.1978216712
 21
71.806256973
 72
1
 10
75.1978216712
 20
71.806256973
 11
74.4478216712
 21
61.0703585881
 72
1
 10
74.4478216712
 20
61.0703585881
 11
71.9478216712
 21
61.0703585881
 72
1
 10
70.6978216712
 20
64.0703585881
 11
71.9478216712
 21
61.0703585881
 72
1
 10
70.6978216712
 20
86.0703585881
 11
70.6978216712
 21
64.0703585881
 72
1
 10
70.5478216712
 20
86.3301662093
 11
70.6978216712
 21
86.0703585881
 72
1
 10
70.5478216712
 20
113.810550967
 11
70.5478216712
 21
86.3301662093
 72
1
 10
70.6978216712
 20
114.0703585881
 11
70.5478216712
 21
113.810550967
 72
1
 10
70.6978216712
 20
139.0703585881
 11
70.6978216712
 21
114.0703585881
 72
1
 10
73.1978216712
 20
139.0703585881
 11
70.6978216712
 21
139.0703585881
 97
0
 75
0
 76
0
 52
135.0
 41
2.486882432
 77
0
 78
1
 53
135.0
 43
0.0
 44
0.0
 45
-1.7584914317
 46
-1.7584914317
 79
0
 98
1
 10
0.0
 20
0.0
  0
HATCH
  5
257
100
AcDbEntity
  8
0
100
AcDbHatch
 62
2
  6
CONTINUOUS
 10
0.0
 20
0.0
 30
0.0
210
0.0
220
0.0
230
1.0
  2
default__3
 70
0
 71
0
 91
2
 92
1
 93
8
 72
1
 10
129.9978184124
 20
120.5703585881
 11
117.6978216712
 21
120.5703585881
 72
1
 10
129.9978184124
 20
120.5703585881
 11
130.4978216712
 21
120.0703552594
 72
1
 10
130.4978216712
 20
120.0703552594
 11
130.4978216712
 21
117.7703607297
 72
1
 10
130.2978195476
 20
117.5703585881
 11
130.4978216712
 21
117.7703607297
 72
1
 10
130.2978195476
 20
117.5703585881
 11
129.6678216712
 21
117.5703585881
 72
2
 10
129.6678216712
 20
115.8003585881
 40
1.77
 50
90.0
 51
224.0204644528
 73
1
 72
1
 10
128.395029465
 20
114.5703585881
 11
117.6978216712
 21
114.5703585881
 72
1
 10
117.6978216712
 20
120.5703585881
 11
117.6978216712
 21
114.5703585881
 97
0
 92
1
 93
8
 72
1
 10
95.6978216712
 20
120.5703585881
 11
83.39782493
 21
120.5703585881
 72
1
 10
95.6978216712
 20
120.5703585881
 11
95.6978216712
 21
114.5703585881
 72
1
 10
95.6978216712
 20
114.5703585881
 11
85.0006138773
 21
114.5703585881
 72
2
 10
83.7278216712
 20
115.8003585881
 40
1.77
 50
315.9795355472
 51
90.0
 73
1
 72
1
 10
83.7278216712
 20
117.5703585881
 11
83.0978237947
 21
117.5703585881
 72
1
 10
83.0978237947
 20
117.5703585881
 11
82.8978216712
 21
117.7703607297
 72
1
 10
82.8978216712
 20
120.0703552594
 11
82.8978216712
 21
117.7703607297
 72
1
 10
83.39782493
 20
120.5703585881
 11
82.8978216712
 21
120.0703552594
 97
0
 75
0
 76
0
 52
45.0
 41
1.8655185035
 77
0
 78
1
 53
45.0
 43
0.0
 44
0.0
 45
-1.3191207843
 46
1.3191207843
 79
0
 98
1
 10
0.0
 20
0.0
  0
HATCH
  5
258
100
AcDbEntity
  8
0
100
AcDbHatch
 62
2
  6
CONTINUOUS
 10
0.0
 20
0.0
 30
0.0
210
0.0
220
0.0
230
1.0
  2
default__4
 70
1
 71
0
 91
1
 92
1
 93
2
 72
2
 10
136.4478216712
 20
70.8203585881
 40
1.25
 50
180.0
 51
360.0
 73
1
 72
2
 10
136.4478216712
 20
70.8203585881
 40
1.25
 50
0.0
 51
180.0
 73
1
 97
0
 75
0
 76
1
 98
1
 10
0.0
 20
0.0
  0
HATCH
  5
259
100
AcDbEntity
  8
0
100
AcDbHatch
 62
2
  6
CONTINUOUS
 10
0.0
 20
0.0
 30
0.0
210
0.0
220
0.0
230
1.0
  2
default__5
 70
1
 71
0
 91
5
 92
1
 93
2
 72
4
 94
3
 73
0
 74
0
 95
18
 96
14
 40
0.0
 40
0.0
 40
0.0
 40
0.0
 40
0.0909090909
 40
0.1818181818
 40
0.2727272727
 40
0.3636363636
 40
0.4545454545
 40
0.5454545455
 40
0.6363636364
 40
0.7272727273
 40
0.8181818182
 40
0.9090909091
 40
1.0
 40
1.0
 40
1.0
 40
1.0
 10
76.4478217235
 20
129.5703594654
 10
76.4478217235
 20
129.4268063569
 10
76.4072088128
 20
129.1509955104
 10
76.2319364416
 20
128.7543628616
 10
75.9464501037
 20
128.4251528691
 10
75.5854795954
 20
128.1895356544
 10
75.1623252118
 20
128.0652675508
 10
74.7315552487
 20
128.0654998011
 10
74.308533939
 20
128.1903235711
 10
73.9481368537
 20
128.4261004497
 10
73.6630839453
 20
128.7554283923
 10
73.4883419899
 20
129.1515383404
 10
73.4478217287
 20
129.4270100193
 10
73.4478217287
 20
129.5703594654
 97
0
 72
4
 94
3
 73
0
 74
0
 95
18
 96
14
 40
0.0
 40
0.0
 40
0.0
 40
0.0
 40
0.0909090909
 40
0.1818181818
 40
0.2727272727
 40
0.3636363636
 40
0.4545454545
 40
0.5454545455
 40
0.6363636364
 40
0.7272727273
 40
0.8181818182
 40
0.9090909091
 40
1.0
 40
1.0
 40
1.0
 40
1.0
 10
73.4478217287
 20
129.5703594654
 10
73.4478217287
 20
129.713912574
 10
73.4884346395
 20
129.9897234204
 10
73.6637070107
 20
130.3863560693
 10
73.9491933485
 20
130.7155660618
 10
74.3101638569
 20
130.9511832765
 10
74.7333182404
 20
131.0754513801
 10
75.1640882036
 20
131.0752191298
 10
75.5871095133
 20
130.9503953598
 10
75.9475065986
 20
130.7146184812
 10
76.232559507
 20
130.3852905386
 10
76.4073014624
 20
129.9891805905
 10
76.4478217235
 20
129.7137089116
 10
76.4478217235
 20
129.5703594654
 97
0
 97
0
 92
1
 93
2
 72
4
 94
3
 73
0
 74
0
 95
18
 96
14
 40
0.0
 40
0.0
 40
0.0
 40
0.0
 40
0.0909090909
 40
0.1818181818
 40
0.2727272727
 40
0.3636363636
 40
0.4545454545
 40
0.5454545455
 40
0.6363636364
 40
0.7272727273
 40
0.8181818182
 40
0.9090909091
 40
1.0
 40
1.0
 40
1.0
 40
1.0
 10
76.447821755
 20
123.5703571845
 10
76.447821755
 20
123.4268040758
 10
76.4072088442
 20
123.1509932293
 10
76.2319364731
 20
122.7543605803
 10
75.9464501354
 20
122.4251505879
 10
75.5854796274
 20
122.1895333733
 10
75.1623252445
 20
122.0652652699
 10
74.731555282
 20
122.0654975201
 10
74.3085339729
 20
122.19032129
 10
73.948136888
 20
122.4260981685
 10
73.6630839797
 20
122.755426111
 10
73.4883420245
 20
123.1515360592
 10
73.4478217633
 20
123.4270077382
 10
73.4478217633
 20
123.5703571845
 97
0
 72
4
 94
3
 73
0
 74
0
 95
18
 96
14
 40
0.0
 40
0.0
 40
0.0
 40
0.0
 40
0.0909090909
 40
0.1818181818
 40
0.2727272727
 40
0.3636363636
 40
0.4545454545
 40
0.5454545455
 40
0.6363636364
 40
0.7272727273
 40
0.8181818182
 40
0.9090909091
 40
1.0
 40
1.0
 40
1.0
 40
1.0
 10
73.4478217633
 20
123.5703571845
 10
73.4478217633
 20
123.7139102931
 10
73.488434674
 20
123.9897211397
 10
73.6637070452
 20
124.3863537886
 10
73.9491933829
 20
124.7155637811
 10
74.3101638908
 20
124.9511809956
 10
74.7333182738
 20
125.0754490991
 10
75.1640882362
 20
125.0752168488
 10
75.5871095453
 20
124.9503930789
 10
75.9475066302
 20
124.7146162004
 10
76.2325595385
 20
124.385288258
 10
76.4073014938
 20
123.9891783098
 10
76.447821755
 20
123.7137066307
 10
76.447821755
 20
123.5703571845
 97
0
 97
0
 92
1
 93
2
 72
4
 94
3
 73
0
 74
0
 95
18
 96
14
 40
0.0
 40
0.0
 40
0.0
 40
0.0
 40
0.0909090909
 40
0.1818181818
 40
0.2727272727
 40
0.3636363636
 40
0.4545454545
 40
0.5454545455
 40
0.6363636364
 40
0.7272727273
 40
0.8181818182
 40
0.9090909091
 40
1.0
 40
1.0
 40
1.0
 40
1.0
 10
139.9478216524
 20
132.5703600138
 10
139.9478216524
 20
132.4270105677
 10
139.9073013913
 20
132.1515388889
 10
139.7325594359
 20
131.7554289409
 10
139.4475065272
 20
131.4261009983
 10
139.0871094415
 20
131.1903241195
 10
138.6640881311
 20
131.0655003494
 10
138.2333181672
 20
131.0652680991
 10
137.810163783
 20
131.1895362028
 10
137.4491932742
 20
131.4251534177
 10
137.1637069361
 20
131.7543634102
 10
136.9884345649
 20
132.150996059
 10
136.9478216541
 20
132.4268069053
 10
136.9478216541
 20
132.5703600138
 97
0
 72
4
 94
3
 73
0
 74
0
 95
18
 96
14
 40
0.0
 40
0.0
 40
0.0
 40
0.0
 40
0.0909090909
 40
0.1818181818
 40
0.2727272727
 40
0.3636363636
 40
0.4545454545
 40
0.5454545455
 40
0.6363636364
 40
0.7272727273
 40
0.8181818182
 40
0.9090909091
 40
1.0
 40
1.0
 40
1.0
 40
1.0
 10
136.9478216541
 20
132.5703600138
 10
136.9478216541
 20
132.7137094598
 10
136.9883419153
 20
132.9891811386
 10
137.1630838707
 20
133.3852910866
 10
137.4481367793
 20
133.7146190292
 10
137.8085338651
 20
133.950395908
 10
138.2315551755
 20
134.0752196781
 10
138.6623251394
 20
134.0754519284
 10
139.0854795236
 20
133.9511838247
 10
139.4464500324
 20
133.7155666098
 10
139.7319363705
 20
133.3863566173
 10
139.9072087417
 20
132.9897239685
 10
139.9478216524
 20
132.7139131222
 10
139.9478216524
 20
132.5703600138
 97
0
 97
0
 92
1
 93
2
 72
4
 94
3
 73
0
 74
0
 95
18
 96
14
 40
0.0
 40
0.0
 40
0.0
 40
0.0
 40
0.0909090909
 40
0.1818181818
 40
0.2727272727
 40
0.3636363636
 40
0.4545454545
 40
0.5454545455
 40
0.6363636364
 40
0.7272727273
 40
0.8181818182
 40
0.9090909091
 40
1.0
 40
1.0
 40
1.0
 40
1.0
 10
139.9478215805
 20
126.5703581276
 10
139.9478215805
 20
126.4270086813
 10
139.9073013193
 20
126.1515370023
 10
139.732559364
 20
125.7554270541
 10
139.4475064557
 20
125.4260991116
 10
139.0871093708
 20
125.1903222331
 10
138.6640880617
 20
125.0654984632
 10
138.2333180992
 20
125.065266213
 10
137.8101637162
 20
125.1895343164
 10
137.4491932082
 20
125.425151531
 10
137.1637068705
 20
125.7543615234
 10
136.9884344994
 20
126.1509941724
 10
136.9478215887
 20
126.4268050189
 10
136.9478215887
 20
126.5703581276
 97
0
 72
4
 94
3
 73
0
 74
0
 95
18
 96
14
 40
0.0
 40
0.0
 40
0.0
 40
0.0
 40
0.0909090909
 40
0.1818181818
 40
0.2727272727
 40
0.3636363636
 40
0.4545454545
 40
0.5454545455
 40
0.6363636364
 40
0.7272727273
 40
0.8181818182
 40
0.9090909091
 40
1.0
 40
1.0
 40
1.0
 40
1.0
 10
136.9478215887
 20
126.5703581276
 10
136.9478215887
 20
126.7137075738
 10
136.9883418499
 20
126.9891792529
 10
137.1630838051
 20
127.385289201
 10
137.4481367134
 20
127.7146171435
 10
137.8085337983
 20
127.950394022
 10
138.2315551075
 20
128.0752177919
 10
138.6623250699
 20
128.0754500422
 10
139.0854794529
 20
127.9511819387
 10
139.4464499609
 20
127.7155647242
 10
139.7319362986
 20
127.3863547317
 10
139.9072086697
 20
126.9897220828
 10
139.9478215805
 20
126.7139112362
 10
139.9478215805
 20
126.5703581276
 97
0
 97
0
 92
1
 93
2
 72
4
 94
3
 73
0
 74
0
 95
18
 96
14
 40
0.0
 40
0.0
 40
0.0
 40
0.0
 40
0.0909090909
 40
0.1818181818
 40
0.2727272727
 40
0.3636363636
 40
0.4545454545
 40
0.5454545455
 40
0.6363636364
 40
0.7272727273
 40
0.8181818182
 40
0.9090909091
 40
1.0
 40
1.0
 40
1.0
 40
1.0
 10
139.9478216352
 20
120.5703578205
 10
139.9478216352
 20
120.4270083744
 10
139.907301374
 20
120.1515366956
 10
139.7325594186
 20
119.7554267475
 10
139.4475065101
 20
119.426098805
 10
139.0871094245
 20
119.1903219262
 10
138.6640881144
 20
119.0654981561
 10
138.2333181509
 20
119.0652659059
 10
137.8101637669
 20
119.1895340095
 10
137.4491932584
 20
119.4251512243
 10
137.1637069204
 20
119.7543612168
 10
136.9884345492
 20
120.1509938656
 10
136.9478216384
 20
120.426804712
 10
136.9478216384
 20
120.5703578205
 97
0
 72
4
 94
3
 73
0
 74
0
 95
18
 96
14
 40
0.0
 40
0.0
 40
0.0
 40
0.0
 40
0.0909090909
 40
0.1818181818
 40
0.2727272727
 40
0.3636363636
 40
0.4545454545
 40
0.5454545455
 40
0.6363636364
 40
0.7272727273
 40
0.8181818182
 40
0.9090909091
 40
1.0
 40
1.0
 40
1.0
 40
1.0
 10
136.9478216384
 20
120.5703578205
 10
136.9478216384
 20
120.7137072666
 10
136.9883418996
 20
120.9891789455
 10
137.163083855
 20
121.3852888935
 10
137.4481367635
 20
121.7146168361
 10
137.8085338491
 20
121.9503937148
 10
138.2315551591
 20
122.0752174849
 10
138.6623251227
 20
122.0754497351
 10
139.0854795066
 20
121.9511816315
 10
139.4464500152
 20
121.7155644167
 10
139.7319363532
 20
121.3863544242
 10
139.9072087244
 20
120.9897217754
 10
139.9478216352
 20
120.713910929
 10
139.9478216352
 20
120.5703578205
 97
0
 97
0
 75
0
 76
1
 98
1
 10
0.0
 20
0.0
  0
HATCH
  5
25A
100
AcDbEntity
  8
0
100
AcDbHatch
 62
2
  6
CONTINUOUS
 10
0.0
 20
0.0
 30
0.0
210
0.0
220
0.0
230
1.0
  2
default__6
 70
1
 71
0
 91
7
 92
1
 93
2
 72
4
 94
3
 73
0
 74
0
 95
19
 96
15
 40
0.0
 40
0.0
 40
0.0
 40
0.0
 40
0.0833333333
 40
0.1666666667
 40
0.25
 40
0.3333333333
 40
0.4166666667
 40
0.5
 40
0.5833333333
 40
0.6666666667
 40
0.75
 40
0.8333333333
 40
0.9166666667
 40
1.0
 40
1.0
 40
1.0
 40
1.0
 10
93.84048632
 20
129.6703585881
 10
93.8502350043
 20
129.6038606976
 10
93.850326874
 20
129.473571304
 10
93.7942098041
 20
129.2781943084
 10
93.6865959695
 20
129.1085967353
 10
93.5345058945
 20
128.9759870553
 10
93.3513655321
 20
128.8903306033
 10
93.1515569419
 20
128.8613313888
 10
92.9506472365
 20
128.8884269454
 10
92.7667718332
 20
128.9722876542
 10
92.6124935796
 20
129.1044191561
 10
92.503129748
 20
129.2742621136
 10
92.4456504331
 20
129.4701475766
 10
92.4452158429
 20
129.6025476471
 10
92.4551570223
 20
129.6703585881
 97
0
 72
1
 10
92.4551570223
 20
129.6703585881
 11
93.8406416439
 21
129.6703585881
 97
0
 92
1
 93
2
 72
4
 94
3
 73
0
 74
0
 95
18
 96
14
 40
0.0
 40
0.0
 40
0.0
 40
0.0
 40
0.0909090909
 40
0.1818181818
 40
0.2727272727
 40
0.3636363636
 40
0.4545454545
 40
0.5454545455
 40
0.6363636364
 40
0.7272727273
 40
0.8181818182
 40
0.9090909091
 40
1.0
 40
1.0
 40
1.0
 40
1.0
 10
93.8478216712
 20
127.9592478719
 10
93.8478216712
 20
127.8923012287
 10
93.8288895246
 20
127.7636572831
 10
93.7471935588
 20
127.5786448435
 10
93.6139966129
 20
127.4249381626
 10
93.445522283
 20
127.3149180241
 10
93.2479994973
 20
127.256872445
 10
93.04685536
 20
127.2569774234
 10
92.8494019136
 20
127.3152660211
 10
92.6811780667
 20
127.425359239
 10
92.5481813173
 20
127.5791070232
 10
92.4667153572
 20
127.7638865232
 10
92.4478216712
 20
127.8923865342
 10
92.4478216712
 20
127.9592478719
 97
0
 72
4
 94
3
 73
0
 74
0
 95
18
 96
14
 40
0.0
 40
0.0
 40
0.0
 40
0.0
 40
0.0909090909
 40
0.1818181818
 40
0.2727272727
 40
0.3636363636
 40
0.4545454545
 40
0.5454545455
 40
0.6363636364
 40
0.7272727273
 40
0.8181818182
 40
0.9090909091
 40
1.0
 40
1.0
 40
1.0
 40
1.0
 10
92.4478216712
 20
127.9592478719
 10
92.4478216712
 20
128.0261945151
 10
92.4667538177
 20
128.1548384608
 10
92.5484497835
 20
128.3398509003
 10
92.6816467294
 20
128.4935575813
 10
92.8501210594
 20
128.6035777197
 10
93.0476438451
 20
128.6616232989
 10
93.2487879824
 20
128.6615183204
 10
93.4462414287
 20
128.6032297227
 10
93.6144652756
 20
128.4931365049
 10
93.747462025
 20
128.3393887206
 10
93.8289279852
 20
128.1546092206
 10
93.8478216712
 20
128.0261092096
 10
93.8478216712
 20
127.9592478719
 97
0
 97
0
 92
1
 93
2
 72
4
 94
3
 73
0
 74
0
 95
18
 96
14
 40
0.0
 40
0.0
 40
0.0
 40
0.0
 40
0.0909090909
 40
0.1818181818
 40
0.2727272727
 40
0.3636363636
 40
0.4545454545
 40
0.5454545455
 40
0.6363636364
 40
0.7272727273
 40
0.8181818182
 40
0.9090909091
 40
1.0
 40
1.0
 40
1.0
 40
1.0
 10
93.8478216712
 20
125.9592472407
 10
93.8478216712
 20
125.8923005975
 10
93.8288895246
 20
125.7636566519
 10
93.7471935588
 20
125.5786442124
 10
93.6139966129
 20
125.4249375314
 10
93.445522283
 20
125.3149173929
 10
93.2479994973
 20
125.2568718138
 10
93.04685536
 20
125.2569767923
 10
92.8494019136
 20
125.3152653899
 10
92.6811780667
 20
125.4253586078
 10
92.5481813173
 20
125.5791063921
 10
92.4667153572
 20
125.763885892
 10
92.4478216712
 20
125.892385903
 10
92.4478216712
 20
125.9592472407
 97
0
 72
4
 94
3
 73
0
 74
0
 95
18
 96
14
 40
0.0
 40
0.0
 40
0.0
 40
0.0
 40
0.0909090909
 40
0.1818181818
 40
0.2727272727
 40
0.3636363636
 40
0.4545454545
 40
0.5454545455
 40
0.6363636364
 40
0.7272727273
 40
0.8181818182
 40
0.9090909091
 40
1.0
 40
1.0
 40
1.0
 40
1.0
 10
92.4478216712
 20
125.9592472407
 10
92.4478216712
 20
126.026193884
 10
92.4667538177
 20
126.1548378296
 10
92.5484497835
 20
126.3398502691
 10
92.6816467294
 20
126.4935569501
 10
92.8501210594
 20
126.6035770886
 10
93.0476438451
 20
126.6616226677
 10
93.2487879824
 20
126.6615176892
 10
93.4462414287
 20
126.6032290916
 10
93.6144652756
 20
126.4931358737
 10
93.747462025
 20
126.3393880894
 10
93.8289279852
 20
126.1546085894
 10
93.8478216712
 20
126.0261085784
 10
93.8478216712
 20
125.9592472407
 97
0
 97
0
 92
1
 93
2
 72
4
 94
3
 73
0
 74
0
 95
18
 96
14
 40
0.0
 40
0.0
 40
0.0
 40
0.0
 40
0.0909090909
 40
0.1818181818
 40
0.2727272727
 40
0.3636363636
 40
0.4545454545
 40
0.5454545455
 40
0.6363636364
 40
0.7272727273
 40
0.8181818182
 40
0.9090909091
 40
1.0
 40
1.0
 40
1.0
 40
1.0
 10
120.9478216712
 20
128.9592475624
 10
120.9478216712
 20
128.8923862247
 10
120.9289279852
 20
128.7638862137
 10
120.847462025
 20
128.5791067137
 10
120.7144652756
 20
128.4253589295
 10
120.5462414287
 20
128.3152657116
 10
120.3487879824
 20
128.2569771139
 10
120.1476438451
 20
128.2568721355
 10
119.9501210594
 20
128.3149177146
 10
119.7816467294
 20
128.4249378531
 10
119.6484497835
 20
128.578644534
 10
119.5667538177
 20
128.7636569736
 10
119.5478216712
 20
128.8923009192
 10
119.5478216712
 20
128.9592475624
 97
0
 72
4
 94
3
 73
0
 74
0
 95
18
 96
14
 40
0.0
 40
0.0
 40
0.0
 40
0.0
 40
0.0909090909
 40
0.1818181818
 40
0.2727272727
 40
0.3636363636
 40
0.4545454545
 40
0.5454545455
 40
0.6363636364
 40
0.7272727273
 40
0.8181818182
 40
0.9090909091
 40
1.0
 40
1.0
 40
1.0
 40
1.0
 10
119.5478216712
 20
128.9592475624
 10
119.5478216712
 20
129.0261089001
 10
119.5667153572
 20
129.1546089111
 10
119.6481813173
 20
129.3393884111
 10
119.7811780667
 20
129.4931361954
 10
119.9494019136
 20
129.6032294132
 10
120.14685536
 20
129.6615180109
 10
120.3479994973
 20
129.6616229894
 10
120.545522283
 20
129.6035774103
 10
120.7139966129
 20
129.4935572718
 10
120.8471935588
 20
129.3398505908
 10
120.9288895246
 20
129.1548381513
 10
120.9478216712
 20
129.0261942056
 10
120.9478216712
 20
128.9592475624
 97
0
 97
0
 92
1
 93
2
 72
4
 94
3
 73
0
 74
0
 95
18
 96
14
 40
0.0
 40
0.0
 40
0.0
 40
0.0
 40
0.0909090909
 40
0.1818181818
 40
0.2727272727
 40
0.3636363636
 40
0.4545454545
 40
0.5454545455
 40
0.6363636364
 40
0.7272727273
 40
0.8181818182
 40
0.9090909091
 40
1.0
 40
1.0
 40
1.0
 40
1.0
 10
120.9478216712
 20
126.9592476331
 10
120.9478216712
 20
126.8923862954
 10
120.9289279852
 20
126.7638862844
 10
120.847462025
 20
126.5791067844
 10
120.7144652756
 20
126.4253590001
 10
120.5462414287
 20
126.3152657823
 10
120.3487879824
 20
126.2569771846
 10
120.1476438451
 20
126.2568722061
 10
119.9501210594
 20
126.3149177853
 10
119.7816467294
 20
126.4249379237
 10
119.6484497835
 20
126.5786446047
 10
119.5667538177
 20
126.7636570442
 10
119.5478216712
 20
126.8923009899
 10
119.5478216712
 20
126.9592476331
 97
0
 72
4
 94
3
 73
0
 74
0
 95
18
 96
14
 40
0.0
 40
0.0
 40
0.0
 40
0.0
 40
0.0909090909
 40
0.1818181818
 40
0.2727272727
 40
0.3636363636
 40
0.4545454545
 40
0.5454545455
 40
0.6363636364
 40
0.7272727273
 40
0.8181818182
 40
0.9090909091
 40
1.0
 40
1.0
 40
1.0
 40
1.0
 10
119.5478216712
 20
126.9592476331
 10
119.5478216712
 20
127.0261089708
 10
119.5667153572
 20
127.1546089818
 10
119.6481813173
 20
127.3393884818
 10
119.7811780667
 20
127.493136266
 10
119.9494019136
 20
127.6032294839
 10
120.14685536
 20
127.6615180816
 10
120.3479994973
 20
127.66162306
 10
120.545522283
 20
127.6035774809
 10
120.7139966129
 20
127.4935573425
 10
120.8471935588
 20
127.3398506615
 10
120.9288895246
 20
127.1548382219
 10
120.9478216712
 20
127.0261942763
 10
120.9478216712
 20
126.9592476331
 97
0
 97
0
 92
1
 93
6
 72
4
 94
3
 73
0
 74
0
 95
12
 96
8
 40
0.0
 40
0.0
 40
0.0
 40
0.0
 40
0.2
 40
0.4
 40
0.6
 40
0.8
 40
1.0
 40
1.0
 40
1.0
 40
1.0
 10
120.9478216712
 20
124.9592470897
 10
120.9478216712
 20
124.8914271971
 10
120.9284445593
 20
124.7612519037
 10
120.844647534
 20
124.5742937453
 10
120.7087543162
 20
124.4198727097
 10
120.5352131696
 20
124.3103849596
 10
120.4047852763
 20
124.2735314175
 10
120.3348604506
 20
124.2649023513
 97
0
 72
2
 10
120.2478216712
 20
123.5703346688
 40
0.7000000105
 50
343.3984497596
 51
82.8572925862
 73
1
 72
1
 10
120.9186420722
 20
123.3703346583
 11
119.5770012701
 21
123.3703346583
 72
2
 10
120.2478216712
 20
123.5703346688
 40
0.7000000105
 50
97.1427074138
 51
196.6015502404
 73
1
 72
4
 94
3
 73
0
 74
0
 95
12
 96
8
 40
0.0
 40
0.0
 40
0.0
 40
0.0
 40
0.2
 40
0.4
 40
0.6
 40
0.8
 40
1.0
 40
1.0
 40
1.0
 40
1.0
 10
120.1607828917
 20
124.2649023513
 10
120.0909240735
 20
124.2735232719
 10
119.9605869954
 20
124.3103182101
 10
119.7870077951
 20
124.4197767782
 10
119.6511120354
 20
124.5741066235
 10
119.5672073147
 20
124.761175874
 10
119.5478216712
 20
124.8913974505
 10
119.5478216712
 20
124.9592470897
 97
0
 72
4
 94
3
 73
0
 74
0
 95
18
 96
14
 40
0.0
 40
0.0
 40
0.0
 40
0.0
 40
0.0909090909
 40
0.1818181818
 40
0.2727272727
 40
0.3636363636
 40
0.4545454545
 40
0.5454545455
 40
0.6363636364
 40
0.7272727273
 40
0.8181818182
 40
0.9090909091
 40
1.0
 40
1.0
 40
1.0
 40
1.0
 10
119.5478216712
 20
124.9592470897
 10
119.5478216712
 20
125.0261084274
 10
119.5667153572
 20
125.1546084384
 10
119.6481813173
 20
125.3393879383
 10
119.7811780667
 20
125.4931357226
 10
119.9494019136
 20
125.6032289405
 10
120.14685536
 20
125.6615175381
 10
120.3479994973
 20
125.6616225166
 10
120.545522283
 20
125.6035769375
 10
120.7139966129
 20
125.493556799
 10
120.8471935588
 20
125.339850118
 10
120.9288895246
 20
125.1548376785
 10
120.9478216712
 20
125.0261937329
 10
120.9478216712
 20
124.9592470897
 97
0
 97
0
 92
1
 93
4
 72
4
 94
3
 73
0
 74
0
 95
11
 96
7
 40
0.0
 40
0.0
 40
0.0
 40
0.0
 40
0.25
 40
0.5
 40
0.75
 40
1.0
 40
1.0
 40
1.0
 40
1.0
 10
93.8478216712
 20
123.9653238676
 10
93.8478216712
 20
123.9059640843
 10
93.8327348074
 20
123.7907415803
 10
93.7674958565
 20
123.6232581698
 10
93.6592960375
 20
123.4765341048
 10
93.5675863524
 20
123.4023171752
 10
93.5160575441
 20
123.3703346583
 97
0
 72
1
 10
93.5160575441
 20
123.3703346583
 11
92.7795857983
 21
123.3703346583
 72
4
 94
3
 73
0
 74
0
 95
11
 96
7
 40
0.0
 40
0.0
 40
0.0
 40
0.0
 40
0.25
 40
0.5
 40
0.75
 40
1.0
 40
1.0
 40
1.0
 40
1.0
 10
92.7795857983
 20
123.3703346583
 10
92.7280245274
 20
123.4023373238
 10
92.6362871012
 20
123.4766064492
 10
92.5281764914
 20
123.623215406
 10
92.4628994833
 20
123.7907552579
 10
92.4478216712
 20
123.9059676065
 10
92.4478216712
 20
123.9653238676
 97
0
 72
4
 94
3
 73
0
 74
0
 95
18
 96
14
 40
0.0
 40
0.0
 40
0.0
 40
0.0
 40
0.0909090909
 40
0.1818181818
 40
0.2727272727
 40
0.3636363636
 40
0.4545454545
 40
0.5454545455
 40
0.6363636364
 40
0.7272727273
 40
0.8181818182
 40
0.9090909091
 40
1.0
 40
1.0
 40
1.0
 40
1.0
 10
92.4478216712
 20
123.9653238676
 10
92.4478216712
 20
124.0322705877
 10
92.4667538525
 20
124.1609146491
 10
92.5484499889
 20
124.3459272353
 10
92.6816469819
 20
124.4996337781
 10
92.8501212466
 20
124.6096537925
 10
93.0476439273
 20
124.6676992873
 10
93.2487878317
 20
124.66759432
 10
93.4462411974
 20
124.6093058175
 10
93.6144649898
 20
124.4992127331
 10
93.7474618155
 20
124.3454650687
 10
93.8289279528
 20
124.160685403
 10
93.8478216712
 20
124.0321852785
 10
93.8478216712
 20
123.9653238676
 97
0
 97
0
 75
0
 76
1
 98
1
 10
0.0
 20
0.0
  0
HATCH
  5
25B
100
AcDbEntity
  8
0
100
AcDbHatch
 62
2
  6
CONTINUOUS
 10
0.0
 20
0.0
 30
0.0
210
0.0
220
0.0
230
1.0
  2
default__7
 70
0
 71
0
 91
1
 92
1
 93
2
 72
2
 10
131.6978216712
 20
108.3703585881
 40
3.969
 50
180.0
 51
360.0
 73
1
 72
2
 10
131.6978216712
 20
108.3703585881
 40
3.969
 50
0.0
 51
180.0
 73
1
 97
0
 75
0
 76
0
 52
85.0
 41
13.0193407259
 77
0
 78
1
 53
85.0
 43
0.0
 44
0.0
 45
-12.9697982038
 46
1.1347103111
 79
0
 98
1
 10
0.0
 20
0.0
  0
HATCH
  5
25C
100
AcDbEntity
  8
0
100
AcDbHatch
 62
2
  6
CONTINUOUS
 10
0.0
 20
0.0
 30
0.0
210
0.0
220
0.0
230
1.0
  2
default__8
 70
0
 71
0
 91
1
 92
1
 93
2
 72
2
 10
81.6978216712
 20
108.3703585881
 40
3.969
 50
180.0
 51
360.0
 73
1
 72
2
 10
81.6978216712
 20
108.3703585881
 40
3.969
 50
0.0
 51
180.0
 73
1
 97
0
 75
0
 76
0
 52
325.0
 41
13.0164002684
 77
0
 78
1
 53
325.0
 43
0.0
 44
0.0
 45
7.4659004801
 46
10.6624108892
 79
0
 98
1
 10
0.0
 20
0.0
  0
ACAD_TABLE
  5
25D
100
AcDbEntity
  8
0
 62
2
  6
CONTINUOUS
100
AcDbBlockReference
  2
*T1
 10
6.0000007209
 20
8.000014528
 30
0.0
100
AcDbTable
342
       42E
343
219
 11
1.0
 21
0.0
 31
0.0
 90
6
 91
8
 92
15
 93
4
 94
0
 95
0
 96
0
 70
1
141
5.0
141
5.0
141
5.0
141
5.0
141
5.0
141
5.0
141
5.0
141
5.0
142
8.5
142
15.0
142
5.0
142
28.0
142
44.0
142
8.0
142
2.0
142
18.0
142
8.5
142
8.5
142
17.0
142
9.0
142
9.0
142
11.0
142
8.5
171
1
172
0
173
0
174
0
175
3
176
1
 91
49
178
0
145
0.0
  7
TEXTSTYLE_3
301
CELL_VALUE
 90
4
  1
Modifica
304
ACVALUE_END
170
5
140
2.0
171
1
172
0
173
1
174
0
175
1
176
1
 91
1
178
0
145
0.0
170
1
171
1
172
0
173
1
174
0
175
1
176
1
 91
1
178
0
145
0.0
170
5
171
1
172
0
173
0
174
0
175
4
176
1
 91
49
178
0
145
0.0
  7
TEXTSTYLE_3
301
CELL_VALUE
 90
4
  1
La ditta tutela i propri disegni a norma di legge
304
ACVALUE_END
170
1
140
1.2
171
1
172
0
173
1
174
0
175
1
176
1
 91
1
178
0
145
0.0
170
1
171
1
172
0
173
1
174
0
175
1
176
1
 91
1
178
0
145
0.0
170
1
171
1
172
0
173
1
174
0
175
1
176
1
 91
1
178
0
145
0.0
170
1
171
1
172
0
173
0
174
0
175
1
176
2
 91
57
178
0
145
0.0
  7
TEXTSTYLE_4
301
CELL_VALUE
 90
4
  1
A4 V
304
ACVALUE_END
170
5
140
3.0
 64
5
171
1
172
0
173
0
174
0
175
2
176
2
 91
49
178
0
145
0.0
  7
TEXTSTYLE_3
301
CELL_VALUE
 90
4
  1
Peso finito \P10.746
304
ACVALUE_END
170
4
140
1.3
171
1
172
0
173
1
174
0
175
1
176
1
 91
1
178
0
145
0.0
170
4
171
1
172
0
173
0
174
0
175
4
176
1
 91
49
178
0
145
0.0
  7
TEXTSTYLE_2
301
CELL_VALUE
 90
4
  1
21880/50BT-B
304
ACVALUE_END
170
9
140
3.0
171
1
172
0
173
1
174
0
175
1
176
1
 91
1
178
0
145
0.0
170
1
171
1
172
0
173
1
174
0
175
1
176
1
 91
1
178
0
145
0.0
170
1
171
1
172
0
173
1
174
0
175
1
176
1
 91
1
178
0
145
0.0
170
9
171
1
172
0
173
0
174
0
175
1
176
1
 91
33
178
0
145
0.0
301
CELL_VALUE
 90
4
  1
 
304
ACVALUE_END
170
1
140
3.0
171
1
172
0
173
0
174
0
175
1
176
1
 91
57
178
0
145
0.0
  7
TEXTSTYLE_3
301
CELL_VALUE
 90
4
  1
N°
304
ACVALUE_END
170
2
140
1.3
 64
5
171
1
172
0
173
0
174
0
175
1
176
1
 91
57
178
0
145
0.0
  7
TEXTSTYLE_3
301
CELL_VALUE
 90
4
  1
DATA
304
ACVALUE_END
170
2
140
1.3
 64
5
171
1
172
0
173
0
174
0
175
1
176
1
 91
57
178
0
145
0.0
  7
TEXTSTYLE_3
301
CELL_VALUE
 90
4
  1
Esp
304
ACVALUE_END
170
2
140
1.3
 64
5
171
1
172
0
173
0
174
0
175
4
176
1
 91
49
178
0
145
0.0
  7
TEXTSTYLE_3
301
CELL_VALUE
 90
4
  1
Cod.Cad 21880-50BT-B
304
ACVALUE_END
170
1
140
1.6
171
1
172
0
173
1
174
0
175
1
176
1
 91
1
178
0
145
0.0
170
1
171
1
172
0
173
1
174
0
175
1
176
1
 91
1
178
0
145
0.0
170
1
171
1
172
0
173
1
174
0
175
1
176
1
 91
1
178
0
145
0.0
170
1
171
1
172
0
173
1
174
0
175
1
176
1
 91
1
178
0
145
0.0
170
1
171
1
172
0
173
1
174
0
175
1
176
1
 91
1
178
0
145
0.0
170
1
171
1
172
0
173
1
174
0
175
1
176
1
 91
1
178
0
145
0.0
170
1
171
1
172
0
173
0
174
0
175
4
176
1
 91
49
178
0
145
0.0
  7
TEXTSTYLE_3
301
CELL_VALUE
 90
4
  1
cod.disegno
304
ACVALUE_END
170
2
140
1.3
171
1
172
0
173
1
174
0
175
1
176
1
 91
1
178
0
145
0.0
170
1
171
1
172
0
173
1
174
0
175
1
176
1
 91
1
178
0
145
0.0
170
1
171
1
172
0
173
1
174
0
175
1
176
1
 91
1
178
0
145
0.0
170
2
171
1
172
0
173
0
174
0
175
1
176
1
 91
57
178
0
145
0.0
  7
TEXTSTYLE_3
301
CELL_VALUE
 90
4
  1
esp.
304
ACVALUE_END
170
2
140
1.3
 64
5
171
1
172
0
173
0
174
0
175
1
176
1
 91
33
178
0
145
0.0
301
CELL_VALUE
 90
4
  1
 
304
ACVALUE_END
170
1
140
3.0
171
1
172
0
173
0
174
0
175
1
176
1
 91
33
178
0
145
0.0
301
CELL_VALUE
 90
4
  1
 
304
ACVALUE_END
170
1
140
3.0
171
1
172
0
173
0
174
0
175
1
176
1
 91
33
178
0
145
0.0
301
CELL_VALUE
 90
4
  1
 
304
ACVALUE_END
170
1
140
3.0
171
1
172
0
173
0
174
0
175
1
176
1
 91
57
178
0
145
0.0
  7
TEXTSTYLE_3
301
CELL_VALUE
 90
4
  1
--
304
ACVALUE_END
170
4
140
1.6
 64
5
171
1
172
0
173
0
174
0
175
1
176
1
 91
57
178
0
145
0.0
  7
TEXTSTYLE_3
301
CELL_VALUE
 90
4
  1
---
304
ACVALUE_END
170
4
140
1.3
 64
5
171
1
172
0
173
0
174
0
175
1
176
2
 91
57
178
0
145
0.0
  7
TEXTSTYLE_2
301
CELL_VALUE
 90
4
  1
00
304
ACVALUE_END
170
5
140
4.0
 64
5
171
1
172
0
173
0
174
0
175
4
176
1
 91
33
178
0
145
0.0
301
CELL_VALUE
 90
4
  1
 
304
ACVALUE_END
170
4
140
3.0
171
1
172
0
173
1
174
0
175
1
176
1
 91
1
178
0
145
0.0
170
1
171
1
172
0
173
1
174
0
175
1
176
1
 91
1
178
0
145
0.0
170
1
171
1
172
0
173
1
174
0
175
1
176
1
 91
1
178
0
145
0.0
170
4
171
1
172
0
173
0
174
0
175
1
176
1
 91
41
178
0
145
0.0
301
CELL_VALUE
 90
4
  1
 
304
ACVALUE_END
170
4
140
3.0
 64
5
171
1
172
0
173
0
174
0
175
2
176
5
 91
33
178
0
145
0.0
301
CELL_VALUE
 90
4
  1
 
304
ACVALUE_END
170
1
140
3.0
171
1
172
0
173
1
174
0
175
1
176
1
 91
1
178
0
145
0.0
170
1
171
1
172
0
173
0
174
0
175
2
176
3
 91
33
178
0
145
0.0
301
CELL_VALUE
 90
4
  1
 
304
ACVALUE_END
170
2
140
3.0
171
1
172
0
173
1
174
0
175
1
176
1
 91
1
178
0
145
0.0
170
2
171
1
172
0
173
0
174
0
175
1
176
1
 91
33
178
0
145
0.0
301
CELL_VALUE
 90
4
  1
 
304
ACVALUE_END
170
1
140
3.0
171
1
172
0
173
0
174
0
175
1
176
1
 91
33
178
0
145
0.0
301
CELL_VALUE
 90
4
  1
 
304
ACVALUE_END
170
1
140
3.0
171
1
172
0
173
0
174
0
175
1
176
1
 91
33
178
0
145
0.0
301
CELL_VALUE
 90
4
  1
 
304
ACVALUE_END
170
1
140
3.0
171
1
172
0
173
0
174
0
175
1
176
1
 91
57
178
0
145
0.0
  7
TEXTSTYLE_3
301
CELL_VALUE
 90
4
  1
Materiale 
304
ACVALUE_END
170
4
140
1.3
 64
5
171
1
172
0
173
0
174
0
175
1
176
1
 91
57
178
0
145
0.0
  7
TEXTSTYLE_3
301
CELL_VALUE
 90
4
  1
Tratt.termici
304
ACVALUE_END
170
4
140
1.5
 64
5
171
1
172
0
173
1
174
0
175
1
176
1
 91
1
178
0
145
0.0
170
1
171
1
172
0
173
0
174
0
175
4
176
1
 91
49
178
0
145
0.0
  7
TEXTSTYLE_3
301
CELL_VALUE
 90
4
  1
Dimens.grezze 
304
ACVALUE_END
170
4
140
1.3
171
1
172
0
173
1
174
0
175
1
176
1
 91
1
178
0
145
0.0
170
1
171
1
172
0
173
1
174
0
175
1
176
1
 91
1
178
0
145
0.0
170
1
171
1
172
0
173
1
174
0
175
1
176
1
 91
1
178
0
145
0.0
170
4
171
1
172
0
173
0
174
0
175
1
176
1
 91
57
178
0
145
0.0
  7
TEXTSTYLE_3
301
CELL_VALUE
 90
4
  1
Peso grezzo Kg. 
304
ACVALUE_END
170
4
140
1.0
 64
5
171
1
172
0
173
1
174
0
175
1
176
1
 91
1
178
0
145
0.0
170
1
171
1
172
0
173
1
174
0
175
1
176
1
 91
1
178
0
145
0.0
170
1
171
1
172
0
173
1
174
0
175
1
176
1
 91
1
178
0
145
0.0
170
1
171
1
172
0
173
1
174
0
175
1
176
1
 91
1
178
0
145
0.0
170
1
171
1
172
0
173
0
174
0
175
1
176
1
 91
33
178
0
145
0.0
301
CELL_VALUE
 90
4
  1
 
304
ACVALUE_END
170
1
140
3.0
171
1
172
0
173
0
174
0
175
1
176
1
 91
33
178
0
145
0.0
301
CELL_VALUE
 90
4
  1
 
304
ACVALUE_END
170
1
140
3.0
171
1
172
0
173
0
174
0
175
1
176
1
 91
33
178
0
145
0.0
301
CELL_VALUE
 90
4
  1
 
304
ACVALUE_END
170
1
140
3.0
171
1
172
0
173
0
174
0
175
1
176
1
 91
57
178
0
145
0.0
  7
TEXTSTYLE_3
301
CELL_VALUE
 90
4
  1
mandrino serie 21880 attacco MAS-BT50
304
ACVALUE_END
170
7
140
1.5
 64
5
171
1
172
0
173
0
174
0
175
4
176
1
 91
33
178
0
145
0.0
301
CELL_VALUE
 90
4
  1
 
304
ACVALUE_END
170
1
140
3.0
171
1
172
0
173
1
174
0
175
1
176
1
 91
1
178
0
145
0.0
170
1
171
1
172
0
173
1
174
0
175
1
176
1
 91
1
178
0
145
0.0
170
1
171
1
172
0
173
1
174
0
175
1
176
1
 91
1
178
0
145
0.0
170
1
171
1
172
0
173
0
174
0
175
2
176
2
 91
49
178
0
145
0.0
  7
TEXTSTYLE_3
301
CELL_VALUE
 90
4
  1
Visto
304
ACVALUE_END
170
1
140
1.3
171
1
172
0
173
1
174
0
175
1
176
1
 91
1
178
0
145
0.0
170
1
171
1
172
0
173
0
174
0
175
1
176
2
 91
57
178
0
145
0.0
  7
TEXTSTYLE_3
301
CELL_VALUE
 90
4
  1
Scala\P1:1
304
ACVALUE_END
170
1
140
1.3
 64
5
171
1
172
0
173
1
174
0
175
1
176
1
 91
1
178
0
145
0.0
170
1
171
1
172
0
173
1
174
0
175
1
176
1
 91
1
178
0
145
0.0
170
1
171
1
172
0
173
1
174
0
175
1
176
1
 91
1
178
0
145
0.0
170
1
171
1
172
0
173
1
174
0
175
1
176
1
 91
1
178
0
145
0.0
170
1
171
1
172
0
173
0
174
0
175
1
176
1
 91
33
178
0
145
0.0
301
CELL_VALUE
 90
4
  1
 
304
ACVALUE_END
170
1
140
3.0
171
1
172
0
173
0
174
0
175
1
176
1
 91
33
178
0
145
0.0
301
CELL_VALUE
 90
4
  1
 
304
ACVALUE_END
170
1
140
3.0
171
1
172
0
173
0
174
0
175
1
176
1
 91
33
178
0
145
0.0
301
CELL_VALUE
 90
4
  1
 
304
ACVALUE_END
170
1
140
3.0
171
1
172
0
173
0
174
0
175
1
176
1
 91
57
178
0
145
0.0
  7
TEXTSTYLE_3
301
CELL_VALUE
 90
4
  1
Descrizione
304
ACVALUE_END
170
1
140
1.2
 64
5
171
1
172
0
173
0
174
0
175
1
176
1
 91
33
178
0
145
0.0
301
CELL_VALUE
 90
4
  1
 
304
ACVALUE_END
170
1
140
3.0
171
1
172
0
173
0
174
0
175
1
176
1
 91
33
178
0
145
0.0
301
CELL_VALUE
 90
4
  1
 
304
ACVALUE_END
170
1
140
3.0
171
1
172
0
173
0
174
0
175
1
176
1
 91
33
178
0
145
0.0
301
CELL_VALUE
 90
4
  1
 
304
ACVALUE_END
170
1
140
3.0
171
1
172
0
173
0
174
0
175
1
176
1
 91
33
178
0
145
0.0
301
CELL_VALUE
 90
4
  1
 
304
ACVALUE_END
170
1
140
3.0
171
1
172
0
173
1
174
0
175
1
176
1
 91
1
178
0
145
0.0
170
1
171
1
172
0
173
1
174
0
175
1
176
1
 91
1
178
0
145
0.0
170
1
171
1
172
0
173
1
174
0
175
1
176
1
 91
1
178
0
145
0.0
170
1
171
1
172
0
173
1
174
0
175
1
176
1
 91
1
178
0
145
0.0
170
1
171
1
172
0
173
1
174
0
175
1
176
1
 91
1
178
0
145
0.0
170
1
171
1
172
0
173
0
174
0
175
2
176
2
 91
33
178
0
145
0.0
301
CELL_VALUE
 90
4
  1
 
304
ACVALUE_END
170
5
140
3.0
171
1
172
0
173
1
174
0
175
1
176
1
 91
1
178
0
145
0.0
170
5
171
1
172
0
173
0
174
0
175
1
176
1
 91
33
178
0
145
0.0
301
CELL_VALUE
 90
4
  1
 
304
ACVALUE_END
170
1
140
3.0
171
1
172
0
173
0
174
0
175
1
176
1
 91
33
178
0
145
0.0
301
CELL_VALUE
 90
4
  1
 
304
ACVALUE_END
170
1
140
3.0
171
1
172
0
173
0
174
0
175
1
176
1
 91
33
178
0
145
0.0
301
CELL_VALUE
 90
4
  1
 
304
ACVALUE_END
170
1
140
3.0
171
1
172
0
173
0
174
0
175
5
176
1
 91
49
178
0
145
0.0
  7
TEXTSTYLE_3
301
CELL_VALUE
 90
4
  1
Macchina o codice prenotante:   21880
304
ACVALUE_END
170
4
140
1.3
171
1
172
0
173
1
174
0
175
1
176
1
 91
1
178
0
145
0.0
170
1
171
1
172
0
173
1
174
0
175
1
176
1
 91
1
178
0
145
0.0
170
1
171
1
172
0
173
1
174
0
175
1
176
1
 91
1
178
0
145
0.0
170
1
171
1
172
0
173
1
174
0
175
1
176
1
 91
1
178
0
145
0.0
170
4
171
1
172
0
173
0
174
0
175
2
176
2
 91
49
178
0
145
0.0
  7
TEXTSTYLE_3
301
CELL_VALUE
 90
4
  1
Firma\PMarchisio
304
ACVALUE_END
170
1
140
1.3
171
1
172
0
173
1
174
0
175
1
176
1
 91
1
178
0
145
0.0
170
1
171
1
172
0
173
0
174
0
175
1
176
2
 91
57
178
0
145
0.0
  7
TEXTSTYLE_3
301
CELL_VALUE
 90
4
  1
Data\P15-06-2021
304
ACVALUE_END
170
1
140
1.3
 64
5
171
1
172
0
173
1
174
0
175
1
176
1
 91
1
178
0
145
0.0
170
1
171
1
172
0
173
1
174
0
175
1
176
1
 91
1
178
0
145
0.0
170
1
171
1
172
0
173
1
174
0
175
1
176
1
 91
1
178
0
145
0.0
170
1
171
1
172
0
173
1
174
0
175
1
176
1
 91
1
178
0
145
0.0
170
1
171
1
172
0
173
0
174
0
175
1
176
1
 91
33
178
0
145
0.0
301
CELL_VALUE
 90
4
  1
 
304
ACVALUE_END
170
1
140
3.0
171
1
172
0
173
0
174
0
175
1
176
1
 91
33
178
0
145
0.0
301
CELL_VALUE
 90
4
  1
 
304
ACVALUE_END
170
1
140
3.0
171
1
172
0
173
0
174
0
175
1
176
1
 91
33
178
0
145
0.0
301
CELL_VALUE
 90
4
  1
 
304
ACVALUE_END
170
1
140
3.0
171
1
172
0
173
0
174
0
175
5
176
1
 91
49
178
0
145
0.0
  7
TEXTSTYLE_3
301
CELL_VALUE
 90
4
  1
Tolleranze generali per quote senza valori:\fgdt;{\fgdt;n}\ftxt;=H11-h11 - lineari\fgdt;{\fgdt;`}\ftxt;0.2
304
ACVALUE_END
170
1
140
1.3
171
1
172
0
173
1
174
0
175
1
176
1
 91
1
178
0
145
0.0
170
1
171
1
172
0
173
1
174
0
175
1
176
1
 91
1
178
0
145
0.0
170
1
171
1
172
0
173
1
174
0
175
1
176
1
 91
1
178
0
145
0.0
170
1
171
1
172
0
173
1
174
0
175
1
176
1
 91
1
178
0
145
0.0
170
1
171
1
172
0
173
1
174
0
175
1
176
1
 91
1
178
0
145
0.0
170
1
171
1
172
0
173
1
174
0
175
1
176
1
 91
1
178
0
145
0.0
170
1
171
1
172
0
173
1
174
0
175
1
176
1
 91
1
178
0
145
0.0
170
1
171
1
172
0
173
0
174
0
175
4
176
1
 91
49
178
0
145
0.0
  7
TEXTSTYLE_3
301
CELL_VALUE
 90
4
  1
Rugosita' \fgdt;{\fgdt;a}\ftxt;0.8=rettifica
304
ACVALUE_END
170
1
140
1.3
171
1
172
0
173
1
174
0
175
1
176
1
 91
1
178
0
145
0.0
170
1
171
1
172
0
173
1
174
0
175
1
176
1
 91
1
178
0
145
0.0
170
1
171
1
172
0
173
1
174
0
175
1
176
1
 91
1
178
0
145
0.0
170
1
  0
MTEXT
  5
25E
100
AcDbEntity
  8
0
100
AcDbMText
 62
5
  6
CONTINUOUS
  7
STANDARD
 71
1
 72
1
 10
12.3543543869
 20
52.1051434144
 30
0.0
 11
1.0
 21
0.0
 31
0.0
 73
2
 44
0.9
  1
SEZIONE \H5.0;B-B
 40
1.5
 41
62.4857142857
  0
LEADER
  5
25F
100
AcDbEntity
  8
0
100
AcDbLeader
 62
2
  6
CONTINUOUS
  3
STANDARD
 71
1
 72
0
 73
0
 75
0
 40
1.5
 41
27.7714285714
 76
3
 10
138.2962409589
 20
208.8816019486
 30
0.0
 10
166.3134637059
 20
236.1125234921
 30
0.0
 10
173.3134637059
 20
236.1125234921
 30
0.0
340
260
1001
ACAD
1000
DSTYLE
1002
{
1070
77
1070
0
1002
}
  0
MTEXT
  5
260
102
{ACAD_REACTORS
330
25F
102
}
100
AcDbEntity
  8
0
100
AcDbMText
 62
5
  6
CONTINUOUS
  7
STANDARD
 71
1
 72
1
 10
173.3134637059
 20
236.3268092063
 30
0.0
 11
1.0
 21
0.0
 31
0.0
 73
2
 44
0.9
  1
21881/50BT-B
 40
1.5
 41
41.6571428571
  0
LEADER
  5
261
100
AcDbEntity
  8
0
100
AcDbLeader
 62
2
  6
CONTINUOUS
  3
STANDARD
 71
1
 72
0
 73
0
 75
0
 40
1.5
 41
11.5714285714
 76
3
 10
142.8478216712
 20
104.8855672495
 30
0.0
 10
154.1583798792
 20
115.5531257925
 30
0.0
 10
161.1583798792
 20
115.5531257925
 30
0.0
340
262
1001
ACAD
1000
DSTYLE
1002
{
1070
77
1070
0
1002
}
  0
MTEXT
  5
262
102
{ACAD_REACTORS
330
261
102
}
100
AcDbEntity
  8
0
100
AcDbMText
 62
5
  6
CONTINUOUS
  7
STANDARD
 71
1
 72
1
 10
161.1583798792
 20
115.7674115068
 30
0.0
 11
1.0
 21
0.0
 31
0.0
 73
2
 44
0.9
  1
21805
 40
1.5
 41
17.3571428571
  0
LEADER
  5
263
100
AcDbEntity
  8
0
100
AcDbLeader
 62
2
  6
CONTINUOUS
  3
STANDARD
 71
1
 72
0
 73
0
 75
0
 40
1.5
 41
16.2
 76
3
 10
129.0986794181
 20
105.3707885275
 30
0.0
 10
56.3457790374
 20
91.5909251567
 30
0.0
 10
49.3457790374
 20
91.5909251567
 30
0.0
340
265
1001
ACAD
1000
DSTYLE
1002
{
1070
77
1070
0
1002
}
  0
LEADER
  5
264
100
AcDbEntity
  8
0
100
AcDbLeader
 62
2
  6
CONTINUOUS
  3
STANDARD
 71
1
 72
0
 73
0
 75
0
 40
1.5
 41
16.2
 76
3
 10
85.5060492834
 20
107.25216207
 30
0.0
 10
56.3457790374
 20
91.5909251567
 30
0.0
 10
49.3457790374
 20
91.5909251567
 30
0.0
340
265
1001
ACAD
1000
DSTYLE
1002
{
1070
77
1070
0
1002
}
  0
MTEXT
  5
265
102
{ACAD_REACTORS
330
263
330
264
102
}
100
AcDbEntity
  8
0
100
AcDbMText
 62
5
  6
CONTINUOUS
  7
STANDARD
 71
3
 72
1
 10
49.3457790374
 20
91.805210871
 30
0.0
 11
1.0
 21
0.0
 31
0.0
 73
2
 44
0.9
  1
M-40-22
 40
1.5
 41
24.3
  0
LEADER
  5
266
100
AcDbEntity
  8
0
100
AcDbLeader
 62
2
  6
CONTINUOUS
  3
STANDARD
 71
1
 72
0
 73
0
 75
0
 40
1.5
 41
13.8857142857
 76
3
 10
138.2328465497
 20
128.0544525387
 30
0.0
 10
152.7136370702
 20
139.48519305
 30
0.0
 10
159.7136370702
 20
139.48519305
 30
0.0
340
267
1001
ACAD
1000
DSTYLE
1002
{
1070
77
1070
0
1002
}
  0
MTEXT
  5
267
102
{ACAD_REACTORS
330
266
102
}
100
AcDbEntity
  8
0
100
AcDbMText
 62
5
  6
CONTINUOUS
  7
STANDARD
 71
1
 72
1
 10
159.7136370702
 20
139.6994787643
 30
0.0
 11
1.0
 21
0.0
 31
0.0
 73
2
 44
0.9
  1
C11612
 40
1.5
 41
20.8285714286
  0
LEADER
  5
268
100
AcDbEntity
  8
0
100
AcDbLeader
 62
2
  6
CONTINUOUS
  3
STANDARD
 71
1
 72
0
 73
0
 75
0
 40
1.5
 41
16.2
 76
3
 10
82.1272708189
 20
116.5407831725
 30
0.0
 10
67.1335858797
 20
124.1386597313
 30
0.0
 10
60.1335858797
 20
124.1386597313
 30
0.0
340
269
1001
ACAD
1000
DSTYLE
1002
{
1070
77
1070
0
1002
}
  0
MTEXT
  5
269
102
{ACAD_REACTORS
330
268
102
}
100
AcDbEntity
  8
0
100
AcDbMText
 62
5
  6
CONTINUOUS
  7
STANDARD
 71
3
 72
1
 10
60.1335858797
 20
124.3529454455
 30
0.0
 11
1.0
 21
0.0
 31
0.0
 73
2
 44
0.9
  1
M-45-13
 40
1.5
 41
24.3
  0
LEADER
  5
26A
100
AcDbEntity
  8
0
100
AcDbLeader
 62
2
  6
CONTINUOUS
  3
STANDARD
 71
1
 72
0
 73
0
 75
0
 40
1.5
 41
11.5714285714
 76
3
 10
85.3335041648
 20
120.5703585881
 30
0.0
 10
61.0191614877
 20
133.0880233952
 30
0.0
 10
54.0191614877
 20
133.0880233952
 30
0.0
340
26B
1001
ACAD
1000
DSTYLE
1002
{
1070
77
1070
0
1002
}
  0
MTEXT
  5
26B
102
{ACAD_REACTORS
330
26A
102
}
100
AcDbEntity
  8
0
100
AcDbMText
 62
5
  6
CONTINUOUS
  7
STANDARD
 71
3
 72
1
 10
54.0191614877
 20
133.3023091095
 30
0.0
 11
1.0
 21
0.0
 31
0.0
 73
2
 44
0.9
  1
21883
 40
1.5
 41
17.3571428571
  0
LEADER
  5
26C
100
AcDbEntity
  8
0
100
AcDbLeader
 62
2
  6
CONTINUOUS
  3
STANDARD
 71
1
 72
0
 73
0
 75
0
 40
1.5
 41
13.8857142857
 76
3
 10
95.3982864989
 20
129.6703585881
 30
0.0
 10
57.3505068525
 20
154.1311217401
 30
0.0
 10
50.3505068525
 20
154.1311217401
 30
0.0
340
26D
1001
ACAD
1000
DSTYLE
1002
{
1070
77
1070
0
1002
}
  0
MTEXT
  5
26D
102
{ACAD_REACTORS
330
26C
102
}
100
AcDbEntity
  8
0
100
AcDbMText
 62
5
  6
CONTINUOUS
  7
STANDARD
 71
3
 72
1
 10
50.3505068525
 20
154.3454074544
 30
0.0
 11
1.0
 21
0.0
 31
0.0
 73
2
 44
0.9
  1
C21418
 40
1.5
 41
20.8285714286
  0
LEADER
  5
26E
100
AcDbEntity
  8
0
100
AcDbLeader
 62
2
  6
CONTINUOUS
  3
STANDARD
 71
1
 72
0
 73
0
 75
0
 40
1.5
 41
13.8857142857
 76
3
 10
136.9670904374
 20
69.683318594
 30
0.0
 10
152.352451368
 20
53.86155214
 30
0.0
 10
159.352451368
 20
53.86155214
 30
0.0
340
26F
1001
ACAD
1000
DSTYLE
1002
{
1070
77
1070
0
1002
}
  0
MTEXT
  5
26F
102
{ACAD_REACTORS
330
26E
102
}
100
AcDbEntity
  8
0
100
AcDbMText
 62
5
  6
CONTINUOUS
  7
STANDARD
 71
1
 72
1
 10
159.352451368
 20
54.0758378543
 30
0.0
 11
1.0
 21
0.0
 31
0.0
 73
2
 44
0.9
  1
B10513
 40
1.5
 41
20.8285714286
  0
LINE
  5
270
100
AcDbEntity
  8
0
100
AcDbLine
 62
7
  6
CONTINUOUS
 10
0.0
 20
0.0
 11
210.0
 21
0.0
  0
LINE
  5
271
100
AcDbEntity
  8
0
100
AcDbLine
 62
7
  6
CONTINUOUS
 10
0.0
 20
0.0
 11
0.0
 21
297.0
  0
LINE
  5
272
100
AcDbEntity
  8
0
100
AcDbLine
 62
7
  6
CONTINUOUS
 10
210.0
 20
0.0
 11
210.0
 21
297.0
  0
LINE
  5
273
100
AcDbEntity
  8
0
100
AcDbLine
 62
7
  6
CONTINUOUS
 10
0.0
 20
297.0
 11
210.0
 21
297.0
  0
LINE
  5
274
100
AcDbEntity
  8
0
100
AcDbLine
 62
7
  6
CONTINUOUS
 10
141.4478216712
 20
61.0703585881
 11
71.9478216712
 21
61.0703585881
  0
LINE
  5
275
100
AcDbEntity
  8
0
100
AcDbLine
 62
7
  6
CONTINUOUS
 10
132.9761963393
 20
61.8703585881
 11
80.419447003
 21
61.8703585881
  0
LINE
  5
276
100
AcDbEntity
  8
0
100
AcDbLine
 62
7
  6
CONTINUOUS
 10
80.419447003
 20
67.9703585881
 11
86.2100204226
 21
67.9703585881
  0
LINE
  5
277
100
AcDbEntity
  8
0
100
AcDbLine
 62
7
  6
CONTINUOUS
 10
127.1856229197
 20
67.9703585881
 11
132.9761963393
 21
67.9703585881
  0
LINE
  5
278
100
AcDbEntity
  8
0
100
AcDbLine
 62
7
  6
CONTINUOUS
 10
77.1978216712
 20
68.7703585881
 11
85.7427446275
 21
68.7703585881
  0
LINE
  5
279
100
AcDbEntity
  8
0
100
AcDbLine
 62
7
  6
CONTINUOUS
 10
127.6528987148
 20
68.7703585881
 11
136.1978216712
 21
68.7703585881
  0
LINE
  5
27A
100
AcDbEntity
  8
0
100
AcDbLine
 62
7
  6
CONTINUOUS
 10
77.1978216712
 20
70.0703585881
 11
78.4478216712
 21
70.0703585881
  0
LINE
  5
27B
100
AcDbEntity
  8
0
100
AcDbLine
 62
7
  6
CONTINUOUS
 10
134.9478216712
 20
70.0703585881
 11
136.1978216712
 21
70.0703585881
  0
LINE
  5
27C
100
AcDbEntity
  8
0
100
AcDbLine
 62
7
  6
CONTINUOUS
 10
138.1978216712
 20
71.806256973
 11
137.2022713722
 21
71.806256973
  0
LINE
  5
27D
100
AcDbEntity
  8
0
100
AcDbLine
 62
7
  6
CONTINUOUS
 10
78.4478216712
 20
71.806256973
 11
75.1978216712
 21
71.806256973
  0
LINE
  5
27E
100
AcDbEntity
  8
0
100
AcDbLine
 62
7
  6
CONTINUOUS
 10
136.4478216712
 20
72.0703585881
 11
134.9478216712
 21
72.0703585881
  0
LINE
  5
27F
100
AcDbEntity
  8
0
100
AcDbLine
 62
7
  6
CONTINUOUS
 10
77.1978216712
 20
73.0703585881
 11
78.4478216712
 21
73.0703585881
  0
LINE
  5
280
100
AcDbEntity
  8
0
100
AcDbLine
 62
7
  6
CONTINUOUS
 10
134.9478216712
 20
73.0703585881
 11
136.1978216712
 21
73.0703585881
  0
LINE
  5
281
100
AcDbEntity
  8
0
100
AcDbLine
 62
7
  6
CONTINUOUS
 10
117.2978216712
 20
273.1290555094
 11
119.4478216712
 21
274.3703585881
  0
LINE
  5
282
100
AcDbEntity
  8
0
100
AcDbLine
 62
7
  6
CONTINUOUS
 10
139.1978216712
 20
94.0703585881
 11
136.1978216712
 21
94.0703585881
  0
LINE
  5
283
100
AcDbEntity
  8
0
100
AcDbLine
 62
7
  6
CONTINUOUS
 10
77.1978216712
 20
94.0703585881
 11
74.1978216712
 21
94.0703585881
  0
LINE
  5
284
100
AcDbEntity
  8
0
100
AcDbLine
 62
7
  6
CONTINUOUS
 10
70.5478216712
 20
86.3301662093
 11
70.6978216712
 21
86.0703585881
  0
LINE
  5
285
100
AcDbEntity
  8
0
100
AcDbLine
 62
7
  6
CONTINUOUS
 10
70.6978216712
 20
64.0703585881
 11
71.9478216712
 21
61.0703585881
  0
LINE
  5
286
100
AcDbEntity
  8
0
100
AcDbLine
 62
7
  6
CONTINUOUS
 10
139.1978216712
 20
104.0703585881
 11
136.1978216712
 21
104.0703585881
  0
LINE
  5
287
100
AcDbEntity
  8
0
100
AcDbLine
 62
7
  6
CONTINUOUS
 10
77.1978216712
 20
104.0703585881
 11
74.1978216712
 21
104.0703585881
  0
LINE
  5
288
100
AcDbEntity
  8
0
100
AcDbLine
 62
7
  6
CONTINUOUS
 10
136.1978216712
 20
104.2703585881
 11
132.2450609401
 21
104.2703585881
  0
LINE
  5
289
100
AcDbEntity
  8
0
100
AcDbLine
 62
7
  6
CONTINUOUS
 10
81.1505824022
 20
104.2703585881
 11
77.1978216712
 21
104.2703585881
  0
LINE
  5
28A
100
AcDbEntity
  8
0
100
AcDbLine
 62
4
  6
CONTINUOUS
 10
135.8978216712
 20
108.3703585881
 11
127.9598216712
 21
108.3703585881
  0
LINE
  5
28B
100
AcDbEntity
  8
0
100
AcDbLine
 62
4
  6
CONTINUOUS
 10
77.4978216712
 20
108.3703585881
 11
85.4358216712
 21
108.3703585881
  0
LINE
  5
28C
100
AcDbEntity
  8
0
100
AcDbLine
 62
7
  6
CONTINUOUS
 10
93.9478216712
 20
279.9373458863
 11
94.1978216712
 21
280.3703585881
  0
LINE
  5
28D
100
AcDbEntity
  8
0
100
AcDbLine
 62
7
  6
CONTINUOUS
 10
140.1978216712
 20
112.0703585881
 11
136.1978216712
 21
112.0703585881
  0
LINE
  5
28E
100
AcDbEntity
  8
0
100
AcDbLine
 62
7
  6
CONTINUOUS
 10
77.1978216712
 20
112.0703585881
 11
73.1978216712
 21
112.0703585881
  0
LINE
  5
28F
100
AcDbEntity
  8
0
100
AcDbLine
 62
7
  6
CONTINUOUS
 10
136.1978216712
 20
112.4703585881
 11
132.2450609401
 21
112.4703585881
  0
LINE
  5
290
100
AcDbEntity
  8
0
100
AcDbLine
 62
7
  6
CONTINUOUS
 10
81.1505824022
 20
112.4703585881
 11
77.1978216712
 21
112.4703585881
  0
LINE
  5
291
100
AcDbEntity
  8
0
100
AcDbLine
 62
7
  6
CONTINUOUS
 10
129.6628216712
 20
114.0426860023
 11
83.7328216712
 21
114.0426860023
  0
LINE
  5
292
100
AcDbEntity
  8
0
100
AcDbLine
 62
7
  6
CONTINUOUS
 10
82.6978216712
 20
114.0703585881
 11
83.5226275135
 21
114.0703585881
  0
LINE
  5
293
100
AcDbEntity
  8
0
100
AcDbLine
 62
7
  6
CONTINUOUS
 10
129.8730158288
 20
114.0703585881
 11
130.6978216712
 21
114.0703585881
  0
LINE
  5
294
100
AcDbEntity
  8
0
100
AcDbLine
 62
7
  6
CONTINUOUS
 10
128.395029465
 20
114.5703585881
 11
85.0006138773
 21
114.5703585881
  0
LINE
  5
295
100
AcDbEntity
  8
0
100
AcDbLine
 62
7
  6
CONTINUOUS
 10
131.4478216712
 20
115.3693966938
 11
131.370119789
 21
115.3693966938
  0
LINE
  5
296
100
AcDbEntity
  8
0
100
AcDbLine
 62
7
  6
CONTINUOUS
 10
82.0255235533
 20
115.3693966938
 11
81.9478216712
 21
115.3693966938
  0
LINE
  5
297
100
AcDbEntity
  8
0
100
AcDbLine
 62
7
  6
CONTINUOUS
 10
130.2978195476
 20
117.5703585881
 11
129.6678216712
 21
117.5703585881
  0
LINE
  5
298
100
AcDbEntity
  8
0
100
AcDbLine
 62
7
  6
CONTINUOUS
 10
83.7278216712
 20
117.5703585881
 11
83.0978237947
 21
117.5703585881
  0
LINE
  5
299
100
AcDbEntity
  8
0
100
AcDbLine
 62
7
  6
CONTINUOUS
 10
132.9761963393
 20
61.8703585881
 11
133.0619773709
 21
61.7845775566
  0
LINE
  5
29A
100
AcDbEntity
  8
0
100
AcDbLine
 62
7
  6
CONTINUOUS
 10
83.0978237947
 20
117.5703585881
 11
82.8978216712
 21
117.7703607297
  0
LINE
  5
29B
100
AcDbEntity
  8
0
100
AcDbLine
 62
7
  6
CONTINUOUS
 10
56.6978216712
 20
182.0703585881
 11
56.6978216712
 21
170.4076663524
  0
LINE
  5
29C
100
AcDbEntity
  8
0
100
AcDbLine
 62
7
  6
CONTINUOUS
 10
56.6978216712
 20
155.3330508239
 11
56.6978216712
 21
149.0703585881
  0
LINE
  5
29D
100
AcDbEntity
  8
0
100
AcDbLine
 62
7
  6
CONTINUOUS
 10
131.4478216712
 20
119.617730644
 11
130.4978216712
 21
119.617730644
  0
LINE
  5
29E
100
AcDbEntity
  8
0
100
AcDbLine
 62
7
  6
CONTINUOUS
 10
82.8978216712
 20
119.617730644
 11
81.9478216712
 21
119.617730644
  0
LINE
  5
29F
100
AcDbEntity
  8
0
100
AcDbLine
 62
7
  6
CONTINUOUS
 10
130.8978216712
 20
120.5703585881
 11
82.4978216712
 21
120.5703585881
  0
LINE
  5
2A0
100
AcDbEntity
  8
0
100
AcDbLine
 62
7
  6
CONTINUOUS
 10
92.7795857983
 20
123.3703346583
 11
120.9186420722
 21
123.3703346583
  0
LINE
  5
2A1
100
AcDbEntity
  8
0
100
AcDbLine
 62
7
  6
CONTINUOUS
 10
130.8978216712
 20
124.0703585881
 11
120.7314681766
 21
124.0703585881
  0
LINE
  5
2A2
100
AcDbEntity
  8
0
100
AcDbLine
 62
7
  6
CONTINUOUS
 10
92.4478216712
 20
124.0703585881
 11
82.4978216712
 21
124.0703585881
  0
LINE
  5
2A3
100
AcDbEntity
  8
0
100
AcDbLine
 62
7
  6
CONTINUOUS
 10
117.0777238754
 20
124.2703346793
 11
120.1159540026
 21
124.2703346793
  0
LINE
  5
2A4
100
AcDbEntity
  8
0
100
AcDbLine
 62
7
  6
CONTINUOUS
 10
121.1978216712
 20
125.0703585881
 11
120.9364315142
 21
125.0703585881
  0
LINE
  5
2A5
100
AcDbEntity
  8
0
100
AcDbLine
 62
7
  6
CONTINUOUS
 10
95.4629917655
 20
125.0703585881
 11
92.1978216712
 21
125.0703585881
  0
LINE
  5
2A6
100
AcDbEntity
  8
3_ALL_AXES
100
AcDbLine
 62
7
  6
CONTINUOUS
 10
117.0777238754
 20
124.2703346793
 11
117.079635136
 21
124.2703302329
  0
LINE
  5
2A7
100
AcDbEntity
  8
0
100
AcDbLine
 62
7
  6
CONTINUOUS
 10
117.0796338931
 20
124.2700411471
 11
115.6421479869
 21
124.2772344644
  0
LINE
  5
2A8
100
AcDbEntity
  8
0
100
AcDbLine
 62
7
  6
CONTINUOUS
 10
115.6421479869
 20
124.2772344644
 11
114.02086947
 21
124.2865927008
  0
LINE
  5
2A9
100
AcDbEntity
  8
0
100
AcDbLine
 62
7
  6
CONTINUOUS
 10
114.02086947
 20
124.2865927008
 11
112.3118076516
 21
124.2976694974
  0
LINE
  5
2AA
100
AcDbEntity
  8
0
100
AcDbLine
 62
7
  6
CONTINUOUS
 10
112.3118076516
 20
124.2976694974
 11
110.5613526867
 21
124.3102449655
  0
LINE
  5
2AB
100
AcDbEntity
  8
0
100
AcDbLine
 62
7
  6
CONTINUOUS
 10
110.5613526867
 20
124.3102449655
 11
108.8076952476
 21
124.3241358822
  0
LINE
  5
2AC
100
AcDbEntity
  8
0
100
AcDbLine
 62
7
  6
CONTINUOUS
 10
108.8076952476
 20
124.3241358822
 11
107.6522573298
 21
124.3340523128
  0
LINE
  5
2AD
100
AcDbEntity
  8
0
100
AcDbLine
 62
7
  6
CONTINUOUS
 10
107.6522573298
 20
124.3340523128
 11
106.5166220243
 21
124.3444501447
  0
LINE
  5
2AE
100
AcDbEntity
  8
0
100
AcDbLine
 62
7
  6
CONTINUOUS
 10
106.5166220243
 20
124.3444501447
 11
105.407071291
 21
124.3552990209
  0
LINE
  5
2AF
100
AcDbEntity
  8
0
100
AcDbLine
 62
7
  6
CONTINUOUS
 10
105.407071291
 20
124.3552990209
 11
104.3291551103
 21
124.3665710994
  0
LINE
  5
2B0
100
AcDbEntity
  8
0
100
AcDbLine
 62
7
  6
CONTINUOUS
 10
104.3291551103
 20
124.3665710994
 11
103.2890792026
 21
124.3782251134
  0
LINE
  5
2B1
100
AcDbEntity
  8
0
100
AcDbLine
 62
7
  6
CONTINUOUS
 10
103.2890792026
 20
124.3782251134
 11
102.2926324135
 21
124.3902141564
  0
LINE
  5
2B2
100
AcDbEntity
  8
0
100
AcDbLine
 62
7
  6
CONTINUOUS
 10
102.2926324135
 20
124.3902141564
 11
101.3446389486
 21
124.4024909184
  0
LINE
  5
2B3
100
AcDbEntity
  8
0
100
AcDbLine
 62
7
  6
CONTINUOUS
 10
101.3446389486
 20
124.4024909184
 11
100.4489735222
 21
124.415007739
  0
LINE
  5
2B4
100
AcDbEntity
  8
0
100
AcDbLine
 62
7
  6
CONTINUOUS
 10
100.4489735222
 20
124.415007739
 11
99.6085903056
 21
124.4277166505
  0
LINE
  5
2B5
100
AcDbEntity
  8
0
100
AcDbLine
 62
7
  6
CONTINUOUS
 10
99.6085903056
 20
124.4277166505
 11
98.8255645364
 21
124.4405693947
  0
LINE
  5
2B6
100
AcDbEntity
  8
0
100
AcDbLine
 62
7
  6
CONTINUOUS
 10
98.8255645364
 20
124.4405693947
 11
98.1011872403
 21
124.4535166084
  0
LINE
  5
2B7
100
AcDbEntity
  8
0
100
AcDbLine
 62
7
  6
CONTINUOUS
 10
98.1011872403
 20
124.4535166084
 11
97.4360282848
 21
124.4665073281
  0
LINE
  5
2B8
100
AcDbEntity
  8
0
100
AcDbLine
 62
7
  6
CONTINUOUS
 10
97.4360282848
 20
124.4665073281
 11
96.8299299973
 21
124.4794899372
  0
LINE
  5
2B9
100
AcDbEntity
  8
0
100
AcDbLine
 62
7
  6
CONTINUOUS
 10
96.8299299973
 20
124.4794899372
 11
96.2820564366
 21
124.4924125263
  0
LINE
  5
2BA
100
AcDbEntity
  8
0
100
AcDbLine
 62
7
  6
CONTINUOUS
 10
102.6044463454
 20
124.8572261647
 11
110.1578233899
 21
124.6773555305
  0
LINE
  5
2BB
100
AcDbEntity
  8
0
100
AcDbLine
 62
7
  6
CONTINUOUS
 10
110.1578233899
 20
124.6773555305
 11
111.5699270006
 21
124.6424560431
  0
LINE
  5
2BC
100
AcDbEntity
  8
0
100
AcDbLine
 62
7
  6
CONTINUOUS
 10
100.9695409901
 20
124.8984531055
 11
102.6044463454
 21
124.8572261647
  0
LINE
  5
2BD
100
AcDbEntity
  8
0
100
AcDbLine
 62
7
  6
CONTINUOUS
 10
111.5699270006
 20
124.6424560431
 11
112.4539029028
 21
124.6198601586
  0
LINE
  5
2BE
100
AcDbEntity
  8
0
100
AcDbLine
 62
7
  6
CONTINUOUS
 10
99.9506422477
 20
124.9254080206
 11
100.9695409901
 21
124.8984531055
  0
LINE
  5
2BF
100
AcDbEntity
  8
0
100
AcDbLine
 62
7
  6
CONTINUOUS
 10
112.4539029028
 20
124.6198601586
 11
113.2903739062
 21
124.5977596085
  0
LINE
  5
2C0
100
AcDbEntity
  8
0
100
AcDbLine
 62
7
  6
CONTINUOUS
 10
96.2820564366
 20
124.4924125263
 11
95.7908045533
 21
124.5052273845
  0
LINE
  5
2C1
100
AcDbEntity
  8
0
100
AcDbLine
 62
7
  6
CONTINUOUS
 10
113.2903739062
 20
124.5977596085
 11
114.0785459721
 21
124.5761194664
  0
LINE
  5
2C2
100
AcDbEntity
  8
0
100
AcDbLine
 62
7
  6
CONTINUOUS
 10
99.0153497226
 20
124.9513525351
 11
99.9506422477
 21
124.9254080206
  0
LINE
  5
2C3
100
AcDbEntity
  8
0
100
AcDbLine
 62
7
  6
CONTINUOUS
 10
114.0785459721
 20
124.5761194664
 11
114.8180054271
 21
124.5549050866
  0
LINE
  5
2C4
100
AcDbEntity
  8
0
100
AcDbLine
 62
7
  6
CONTINUOUS
 10
95.7908045533
 20
124.5052273845
 11
95.3539936535
 21
124.5178900852
  0
LINE
  5
2C5
100
AcDbEntity
  8
0
100
AcDbLine
 62
7
  6
CONTINUOUS
 10
98.1701538864
 20
124.9761096506
 11
99.0153497226
 21
124.9513525351
  0
LINE
  5
2C6
100
AcDbEntity
  8
0
100
AcDbLine
 62
7
  6
CONTINUOUS
 10
114.8180054271
 20
124.5549050866
 11
115.5085024939
 21
124.534086235
  0
LINE
  5
2C7
100
AcDbEntity
  8
0
100
AcDbLine
 62
7
  6
CONTINUOUS
 10
97.4079440351
 20
124.9998463999
 11
98.1701538864
 21
124.9761096506
  0
LINE
  5
2C8
100
AcDbEntity
  8
0
100
AcDbLine
 62
7
  6
CONTINUOUS
 10
115.5085024939
 20
124.534086235
 11
116.1493484541
 21
124.5136557052
  0
LINE
  5
2C9
100
AcDbEntity
  8
0
100
AcDbLine
 62
7
  6
CONTINUOUS
 10
95.3539936535
 20
124.5178900852
 11
94.9691075547
 21
124.5303556097
  0
LINE
  5
2CA
100
AcDbEntity
  8
0
100
AcDbLine
 62
7
  6
CONTINUOUS
 10
96.7212372902
 20
125.0227474696
 11
97.4079440351
 21
124.9998463999
  0
LINE
  5
2CB
100
AcDbEntity
  8
0
100
AcDbLine
 62
7
  6
CONTINUOUS
 10
116.1493484541
 20
124.5136557052
 11
116.7399848192
 21
124.4936148904
  0
LINE
  5
2CC
100
AcDbEntity
  8
0
100
AcDbLine
 62
7
  6
CONTINUOUS
 10
116.7399848192
 20
124.4936148904
 11
117.280223574
 21
124.4739664227
  0
LINE
  5
2CD
100
AcDbEntity
  8
0
100
AcDbLine
 62
7
  6
CONTINUOUS
 10
94.9691075547
 20
124.5303556097
 11
94.633373532
 21
124.5425773832
  0
LINE
  5
2CE
100
AcDbEntity
  8
0
100
AcDbLine
 62
7
  6
CONTINUOUS
 10
117.280223574
 20
124.4739664227
 11
117.7702090563
 21
124.4547147968
  0
LINE
  5
2CF
100
AcDbEntity
  8
0
100
AcDbLine
 62
7
  6
CONTINUOUS
 10
94.633373532
 20
124.5425773832
 11
94.3437923877
 21
124.5545077345
  0
LINE
  5
2D0
100
AcDbEntity
  8
0
100
AcDbLine
 62
7
  6
CONTINUOUS
 10
117.7702090563
 20
124.4547147968
 11
118.2103761203
 21
124.4358674486
  0
LWPOLYLINE
  5
2D1
100
AcDbEntity
  8
0
100
AcDbPolyline
 62
7
  6
CONTINUOUS
 90
15
 70
0
 10
118.2103761203
 20
124.4358674486
 10
118.601402539
 20
124.4174366856
 10
118.778752293
 20
124.4083835364
 10
118.9441356072
 20
124.3994441783
 10
119.0975400458
 20
124.3906319759
 10
119.2389318179
 20
124.3819657537
 10
119.3683278023
 20
124.3734666832
 10
119.4857903084
 20
124.3651592383
 10
119.591419038
 20
124.3570726954
 10
119.6853398358
 20
124.3492434834
 10
119.7676887102
 20
124.3417189722
 10
119.8385886223
 20
124.3345637793
 10
119.8981013932
 20
124.3278722484
 10
119.9461618286
 20
124.3217907187
 10
119.9655688215
 20
124.3189947509
  0
LINE
  5
2D2
100
AcDbEntity
  8
0
100
AcDbLine
 62
7
  6
CONTINUOUS
 10
94.3437923877
 20
124.5545077345
 11
94.0972171015
 21
124.5660965565
  0
LWPOLYLINE
  5
2D3
100
AcDbEntity
  8
0
100
AcDbPolyline
 62
7
  6
CONTINUOUS
 90
11
 70
0
 10
94.0972171015
 20
124.5660965565
 10
93.8904356137
 20
124.577288762
 10
93.8008270071
 20
124.5827253519
 10
93.7198246144
 20
124.5880494105
 10
93.6470684466
 20
124.5932517525
 10
93.582270149
 20
124.5983170546
 10
93.5252270267
 20
124.6032202119
 10
93.4758445082
 20
124.6079200897
 10
93.4341678006
 20
124.612348919
 10
93.4004791992
 20
124.6163871537
 10
93.3778656698
 20
124.6194817277
  0
LWPOLYLINE
  5
2D4
100
AcDbEntity
  8
0
100
AcDbPolyline
 62
7
  6
CONTINUOUS
 90
10
 70
0
 10
77.3478216712
 20
124.7004087492
 10
77.2161027383
 20
124.7109891597
 10
76.9140068018
 20
124.7371101362
 10
76.6425924433
 20
124.7625027704
 10
76.4011239458
 20
124.7870899674
 10
76.1889743414
 20
124.8107592699
 10
76.0056919577
 20
124.8333410296
 10
75.8510987108
 20
124.8545702021
 10
75.7253736617
 20
124.8740278713
 10
75.6434170021
 20
124.8885174219
  0
LWPOLYLINE
  5
2D5
100
AcDbEntity
  8
0
100
AcDbPolyline
 62
7
  6
CONTINUOUS
 90
10
 70
0
 10
136.0478216712
 20
119.4402615992
 10
136.2376940366
 20
119.424848085
 10
136.5560520949
 20
119.3968447483
 10
136.8399797344
 20
119.3696062085
 10
137.089839736
 20
119.3432670597
 10
137.3058288261
 20
119.3180301402
 10
137.4877409071
 20
119.2942306149
 10
137.6351331227
 20
119.2723806318
 10
137.7471377186
 20
119.2532997821
 10
137.7524618145
 20
119.2522340881
  0
LINE
  5
2D6
100
AcDbEntity
  8
0
100
AcDbLine
 62
7
  6
CONTINUOUS
 10
56.6978216712
 20
149.0703585881
 11
57.6978216712
 21
148.0703585881
  0
LINE
  5
2D7
100
AcDbEntity
  8
0
100
AcDbLine
 62
7
  6
CONTINUOUS
 10
73.4478216712
 20
137.5703585881
 11
73.9478216712
 21
137.0703585881
  0
LINE
  5
2D8
100
AcDbEntity
  8
0
100
AcDbLine
 62
7
  6
CONTINUOUS
 10
82.6978216712
 20
114.0703585881
 11
81.9478216712
 21
115.3693966938
  0
LINE
  5
2D9
100
AcDbEntity
  8
0
100
AcDbLine
 62
7
  6
CONTINUOUS
 10
64.1978216712
 20
158.8703585881
 11
64.1978216712
 21
166.8703585881
  0
LINE
  5
2DA
100
AcDbEntity
  8
0
100
AcDbLine
 62
7
  6
CONTINUOUS
 10
57.6978216712
 20
183.0703585881
 11
56.6978216712
 21
182.0703585881
  0
LINE
  5
2DB
100
AcDbEntity
  8
0
100
AcDbLine
 62
7
  6
CONTINUOUS
 10
112.6978216712
 20
230.2145473499
 11
117.2978216712
 21
232.8703585881
  0
LINE
  5
2DC
100
AcDbEntity
  8
0
100
AcDbLine
 62
7
  6
CONTINUOUS
 10
92.4551570223
 20
129.6703585881
 11
120.3482830337
 21
129.6703585881
  0
LINE
  5
2DD
100
AcDbEntity
  8
0
100
AcDbLine
 62
7
  6
CONTINUOUS
 10
92.1978216712
 20
131.0703585881
 11
121.1978216712
 21
131.0703585881
  0
LINE
  5
2DE
100
AcDbEntity
  8
0
100
AcDbLine
 62
7
  6
CONTINUOUS
 10
100.6978216712
 20
131.5703585881
 11
112.6978216712
 21
131.5703585881
  0
LINE
  5
2DF
100
AcDbEntity
  8
0
100
AcDbLine
 62
7
  6
CONTINUOUS
 10
101.2235090447
 20
128.7581952802
 11
104.1171577148
 21
128.7209374396
  0
LINE
  5
2E0
100
AcDbEntity
  8
0
100
AcDbLine
 62
7
  6
CONTINUOUS
 10
104.1171577148
 20
128.7209374396
 11
106.9756698248
 21
128.6810750801
  0
LINE
  5
2E1
100
AcDbEntity
  8
0
100
AcDbLine
 62
7
  6
CONTINUOUS
 10
106.9756698248
 20
128.6810750801
 11
108.0975946638
 21
128.664258694
  0
LINE
  5
2E2
100
AcDbEntity
  8
0
100
AcDbLine
 62
7
  6
CONTINUOUS
 10
108.0975946638
 20
128.664258694
 11
109.2375365938
 21
128.6463071008
  0
LINE
  5
2E3
100
AcDbEntity
  8
0
100
AcDbLine
 62
7
  6
CONTINUOUS
 10
93.7613796763
 20
128.8540043779
 11
101.2235090447
 21
128.7581952802
  0
LINE
  5
2E4
100
AcDbEntity
  8
0
100
AcDbLine
 62
7
  6
CONTINUOUS
 10
109.2375365938
 20
128.6463071008
 11
110.3879009754
 21
128.6271376522
  0
LINE
  5
2E5
100
AcDbEntity
  8
0
100
AcDbLine
 62
7
  6
CONTINUOUS
 10
110.3879009754
 20
128.6271376522
 11
111.15625209
 21
128.6136379
  0
LINE
  5
2E6
100
AcDbEntity
  8
0
100
AcDbLine
 62
7
  6
CONTINUOUS
 10
111.15625209
 20
128.6136379
 11
111.9223612872
 21
128.599528642
  0
LINE
  5
2E7
100
AcDbEntity
  8
0
100
AcDbLine
 62
7
  6
CONTINUOUS
 10
111.9223612872
 20
128.599528642
 11
112.6830188621
 21
128.5847788115
  0
LINE
  5
2E8
100
AcDbEntity
  8
0
100
AcDbLine
 62
7
  6
CONTINUOUS
 10
112.6830188621
 20
128.5847788115
 11
113.4346820659
 21
128.5693559342
  0
LINE
  5
2E9
100
AcDbEntity
  8
0
100
AcDbLine
 62
7
  6
CONTINUOUS
 10
93.4258408589
 20
128.860382158
 11
93.7613796763
 21
128.8540043779
  0
LINE
  5
2EA
100
AcDbEntity
  8
0
100
AcDbLine
 62
7
  6
CONTINUOUS
 10
113.4346820659
 20
128.5693559342
 11
114.1734574902
 21
128.5532261779
  0
LINE
  5
2EB
100
AcDbEntity
  8
0
100
AcDbLine
 62
7
  6
CONTINUOUS
 10
114.1734574902
 20
128.5532261779
 11
114.8950859796
 21
128.5363544458
  0
LINE
  5
2EC
100
AcDbEntity
  8
0
100
AcDbLine
 62
7
  6
CONTINUOUS
 10
110.0379006586
 20
126.0796661015
 11
104.5047342491
 21
126.2106858798
  0
LINE
  5
2ED
100
AcDbEntity
  8
0
100
AcDbLine
 62
7
  6
CONTINUOUS
 10
109.8968107209
 20
128.0830810161
 11
104.6489281786
 21
128.2072562528
  0
LINE
  5
2EE
100
AcDbEntity
  8
0
100
AcDbLine
 62
7
  6
CONTINUOUS
 10
104.5047342491
 20
126.2106858798
 11
103.2596509865
 21
126.2406081966
  0
LINE
  5
2EF
100
AcDbEntity
  8
0
100
AcDbLine
 62
7
  6
CONTINUOUS
 10
103.0307977538
 20
126.8467770529
 11
108.8030869429
 21
126.7098989782
  0
LINE
  5
2F0
100
AcDbEntity
  8
0
100
AcDbLine
 62
7
  6
CONTINUOUS
 10
104.6489281786
 20
128.2072562528
 11
103.0034360323
 21
128.2468501112
  0
LINE
  5
2F1
100
AcDbEntity
  8
0
100
AcDbLine
 62
7
  6
CONTINUOUS
 10
108.8030869429
 20
126.7098989782
 11
110.4326955557
 21
126.6706560808
  0
LINE
  5
2F2
100
AcDbEntity
  8
0
100
AcDbLine
 62
7
  6
CONTINUOUS
 10
103.2596509865
 20
126.2406081966
 11
102.1128484761
 21
126.2688365332
  0
LINE
  5
2F3
100
AcDbEntity
  8
0
100
AcDbLine
 62
7
  6
CONTINUOUS
 10
111.6171425329
 20
126.0406994215
 11
110.0379006586
 21
126.0796661015
  0
LINE
  5
2F4
100
AcDbEntity
  8
0
100
AcDbLine
 62
7
  6
CONTINUOUS
 10
110.4326955557
 20
126.6706560808
 11
111.4574258605
 21
126.6452856768
  0
LINE
  5
2F5
100
AcDbEntity
  8
0
100
AcDbLine
 62
7
  6
CONTINUOUS
 10
103.0034360323
 20
128.2468501112
 11
101.9691379331
 21
128.2724340515
  0
LINE
  5
2F6
100
AcDbEntity
  8
0
100
AcDbLine
 62
7
  6
CONTINUOUS
 10
111.5603602598
 20
128.0421296372
 11
109.8968107209
 21
128.0830810161
  0
LINE
  5
2F7
100
AcDbEntity
  8
0
100
AcDbLine
 62
7
  6
CONTINUOUS
 10
101.4214285543
 20
126.8868439988
 11
103.0307977538
 21
126.8467770529
  0
LINE
  5
2F8
100
AcDbEntity
  8
0
100
AcDbLine
 62
7
  6
CONTINUOUS
 10
93.2966803694
 20
128.8634232787
 11
93.4258408589
 21
128.860382158
  0
LINE
  5
2F9
100
AcDbEntity
  8
0
100
AcDbLine
 62
7
  6
CONTINUOUS
 10
102.1128484761
 20
126.2688365332
 11
101.0669395087
 21
126.2953906759
  0
LINE
  5
2FA
100
AcDbEntity
  8
0
100
AcDbLine
 62
7
  6
CONTINUOUS
 10
101.9691379331
 20
128.2724340515
 11
100.9946128568
 21
128.2972631765
  0
LINE
  5
2FB
100
AcDbEntity
  8
0
100
AcDbLine
 62
7
  6
CONTINUOUS
 10
111.4574258605
 20
126.6452856768
 11
112.4241168803
 21
126.6206338566
  0
LINE
  5
2FC
100
AcDbEntity
  8
0
100
AcDbLine
 62
7
  6
CONTINUOUS
 10
112.5918125463
 20
128.0157356381
 11
111.5603602598
 21
128.0421296372
  0
LINE
  5
2FD
100
AcDbEntity
  8
0
100
AcDbLine
 62
7
  6
CONTINUOUS
 10
114.8950859796
 20
128.5363544458
 11
115.5949295146
 21
128.5187045711
  0
LINE
  5
2FE
100
AcDbEntity
  8
0
100
AcDbLine
 62
7
  6
CONTINUOUS
 10
100.4357396451
 20
126.9124280754
 11
101.4214285543
 21
126.8868439988
  0
LINE
  5
2FF
100
AcDbEntity
  8
0
100
AcDbLine
 62
7
  6
CONTINUOUS
 10
113.0563930499
 20
126.0035075581
 11
111.6171425329
 21
126.0406994215
  0
LINE
  5
300
100
AcDbEntity
  8
0
100
AcDbLine
 62
7
  6
CONTINUOUS
 10
101.0669395087
 20
126.2953906759
 11
100.1071622288
 21
126.3206836855
  0
LINE
  5
301
100
AcDbEntity
  8
0
100
AcDbLine
 62
7
  6
CONTINUOUS
 10
112.4241168803
 20
126.6206338566
 11
113.3271151305
 21
126.5967705949
  0
LINE
  5
302
100
AcDbEntity
  8
0
100
AcDbLine
 62
7
  6
CONTINUOUS
 10
100.9946128568
 20
128.2972631765
 11
100.0857455843
 21
128.321261
  0
LINE
  5
303
100
AcDbEntity
  8
0
100
AcDbLine
 62
7
  6
CONTINUOUS
 10
113.5453953773
 20
127.9903631901
 11
112.5918125463
 21
128.0157356381
  0
LINE
  5
304
100
AcDbEntity
  8
0
100
AcDbLine
 62
7
  6
CONTINUOUS
 10
113.9296699358
 20
125.9798074291
 11
113.0563930499
 21
126.0035075581
  0
LINE
  5
305
100
AcDbEntity
  8
0
100
AcDbLine
 62
7
  6
CONTINUOUS
 10
99.5285658531
 20
126.9369536005
 11
100.4357396451
 21
126.9124280754
  0
LINE
  5
306
100
AcDbEntity
  8
0
100
AcDbLine
 62
7
  6
CONTINUOUS
 10
100.1071622288
 20
126.3206836855
 11
99.2194634853
 21
126.3451205657
  0
LINE
  5
307
100
AcDbEntity
  8
0
100
AcDbLine
 62
7
  6
CONTINUOUS
 10
113.3271151305
 20
126.5967705949
 11
114.1647919032
 21
126.5736954013
  0
LINE
  5
308
100
AcDbEntity
  8
0
100
AcDbLine
 62
7
  6
CONTINUOUS
 10
100.0857455843
 20
128.321261
 11
99.2430860981
 21
128.3444554712
  0
LWPOLYLINE
  5
309
100
AcDbEntity
  8
0
100
AcDbPolyline
 62
7
  6
CONTINUOUS
 90
14
 70
0
 10
115.5949295146
 20
128.5187045711
 10
116.267955041
 20
128.5002398395
 10
116.5927165538
 20
128.4906908021
 10
116.9087007244
 20
128.4809245486
 10
117.2151716267
 20
128.4709365333
 10
117.5113658016
 20
128.4607224514
 10
117.7964910788
 20
128.4502783964
 10
118.0697248511
 20
128.4396010975
 10
118.3302114575
 20
128.4286882895
 10
118.5770581059
 20
128.4175393039
 10
118.8093283549
 20
128.4061560437
 10
119.026031425
 20
128.3945446536
 10
119.2261041341
 20
128.3827185068
 10
119.3873938456
 20
128.3721606896
  0
LINE
  5
30A
100
AcDbEntity
  8
0
100
AcDbLine
 62
7
  6
CONTINUOUS
 10
114.4198617412
 20
127.9660139814
 11
113.5453953773
 21
127.9903631901
  0
LINE
  5
30B
100
AcDbEntity
  8
0
100
AcDbLine
 62
7
  6
CONTINUOUS
 10
114.7288346457
 20
125.9571043353
 11
113.9296699358
 21
125.9798074291
  0
LINE
  5
30C
100
AcDbEntity
  8
0
100
AcDbLine
 62
7
  6
CONTINUOUS
 10
98.6957901483
 20
126.9605472995
 11
99.5285658531
 21
126.9369536005
  0
LINE
  5
30D
100
AcDbEntity
  8
0
100
AcDbLine
 62
7
  6
CONTINUOUS
 10
99.2194634853
 20
126.3451205657
 11
98.3976419184
 21
126.3689124481
  0
LINE
  5
30E
100
AcDbEntity
  8
0
100
AcDbLine
 62
7
  6
CONTINUOUS
 10
114.1647919032
 20
126.5736954013
 11
114.9387857943
 21
126.5513412684
  0
LINE
  5
30F
100
AcDbEntity
  8
0
100
AcDbLine
 62
7
  6
CONTINUOUS
 10
99.2430860981
 20
128.3444554712
 11
98.4647036406
 21
128.3669218267
  0
LINE
  5
310
100
AcDbEntity
  8
0
100
AcDbLine
 62
7
  6
CONTINUOUS
 10
115.2200771658
 20
127.9425485427
 11
114.4198617412
 21
127.9660139814
  0
LINE
  5
311
100
AcDbEntity
  8
0
100
AcDbLine
 62
7
  6
CONTINUOUS
 10
115.4520618327
 20
125.9354861559
 11
114.7288346457
 21
125.9571043353
  0
LINE
  5
312
100
AcDbEntity
  8
0
100
AcDbLine
 62
7
  6
CONTINUOUS
 10
97.9323546552
 20
126.983353843
 11
98.6957901483
 21
126.9605472995
  0
LINE
  5
313
100
AcDbEntity
  8
0
100
AcDbLine
 62
7
  6
CONTINUOUS
 10
93.2246786902
 20
128.8654785093
 11
93.2966803694
 21
128.8634232787
  0
LINE
  5
314
100
AcDbEntity
  8
0
100
AcDbLine
 62
7
  6
CONTINUOUS
 10
114.9387857943
 20
126.5513412684
 11
115.651216474
 21
126.5296390273
  0
LINE
  5
315
100
AcDbEntity
  8
0
100
AcDbLine
 62
7
  6
CONTINUOUS
 10
98.4647036406
 20
128.3669218267
 11
97.7483012257
 21
128.388735075
  0
LINE
  5
316
100
AcDbEntity
  8
0
100
AcDbLine
 62
7
  6
CONTINUOUS
 10
98.3976419184
 20
126.3689124481
 11
97.6420689479
 21
126.3920801344
  0
LINE
  5
317
100
AcDbEntity
  8
0
100
AcDbLine
 62
7
  6
CONTINUOUS
 10
115.9510925779
 20
127.9198251601
 11
115.2200771658
 21
127.9425485427
  0
LINE
  5
318
100
AcDbEntity
  8
0
100
AcDbLine
 62
7
  6
CONTINUOUS
 10
116.103693152
 20
125.91489214
 11
115.4520618327
 21
125.9354861559
  0
LINE
  5
319
100
AcDbEntity
  8
0
100
AcDbLine
 62
7
  6
CONTINUOUS
 10
97.2333428014
 20
127.0055166073
 11
97.9323546552
 21
126.983353843
  0
LINE
  5
31A
100
AcDbEntity
  8
0
100
AcDbLine
 62
7
  6
CONTINUOUS
 10
115.651216474
 20
126.5296390273
 11
116.3042988574
 21
126.5085236915
  0
LINE
  5
31B
100
AcDbEntity
  8
0
100
AcDbLine
 62
7
  6
CONTINUOUS
 10
97.7483012257
 20
128.388735075
 11
97.0917430096
 21
128.4099585713
  0
LINE
  5
31C
100
AcDbEntity
  8
0
100
AcDbLine
 62
7
  6
CONTINUOUS
 10
97.6420689479
 20
126.3920801344
 11
96.952707711
 21
126.4146355493
  0
LINE
  5
31D
100
AcDbEntity
  8
0
100
AcDbLine
 62
7
  6
CONTINUOUS
 10
116.6174168522
 20
127.8977135501
 11
115.9510925779
 21
127.9198251601
  0
LINE
  5
31E
100
AcDbEntity
  8
0
100
AcDbLine
 62
7
  6
CONTINUOUS
 10
116.6907197578
 20
125.8951815431
 11
116.103693152
 21
125.91489214
  0
LINE
  5
31F
100
AcDbEntity
  8
0
100
AcDbLine
 62
7
  6
CONTINUOUS
 10
96.5961652625
 20
127.0271098827
 11
97.2333428014
 21
127.0055166073
  0
LINE
  5
320
100
AcDbEntity
  8
0
100
AcDbLine
 62
7
  6
CONTINUOUS
 10
116.3042988574
 20
126.5085236915
 11
116.8992114599
 21
126.4879711354
  0
LINE
  5
321
100
AcDbEntity
  8
0
100
AcDbLine
 62
7
  6
CONTINUOUS
 10
97.0917430096
 20
128.4099585713
 11
96.4942080824
 21
128.4306040764
  0
LINE
  5
322
100
AcDbEntity
  8
0
100
AcDbLine
 62
7
  6
CONTINUOUS
 10
93.1869474843
 20
128.8667682436
 11
93.2246786902
 21
128.8654785093
  0
LINE
  5
323
100
AcDbEntity
  8
0
100
AcDbLine
 62
7
  6
CONTINUOUS
 10
96.952707711
 20
126.4146355493
 11
96.3289229075
 21
126.4365892736
  0
LINE
  5
324
100
AcDbEntity
  8
0
100
AcDbLine
 62
7
  6
CONTINUOUS
 10
117.2191102359
 20
125.8762348274
 11
116.6907197578
 21
125.8951815431
  0
LINE
  5
325
100
AcDbEntity
  8
0
100
AcDbLine
 62
7
  6
CONTINUOUS
 10
117.2205352589
 20
127.876182529
 11
116.6174168522
 21
127.8977135501
  0
LINE
  5
326
100
AcDbEntity
  8
0
100
AcDbLine
 62
7
  6
CONTINUOUS
 10
96.0204711475
 20
127.0481221346
 11
96.5961652625
 21
127.0271098827
  0
LINE
  5
327
100
AcDbEntity
  8
0
100
AcDbLine
 62
7
  6
CONTINUOUS
 10
116.8992114599
 20
126.4879711354
 11
117.4367670871
 21
126.4679838604
  0
LINE
  5
328
100
AcDbEntity
  8
0
100
AcDbLine
 62
7
  6
CONTINUOUS
 10
96.4942080824
 20
128.4306040764
 11
95.9548542505
 21
128.4506673656
  0
LWPOLYLINE
  5
329
100
AcDbEntity
  8
0
100
AcDbPolyline
 62
7
  6
CONTINUOUS
 90
19
 70
0
 10
96.3289229075
 20
126.4365892736
 10
95.7695961197
 20
126.4579492856
 10
95.5137989896
 20
126.4684017267
 10
95.2738640406
 20
126.4786913184
 10
95.0497022851
 20
126.4888083282
 10
94.8411664645
 20
126.4987424908
 10
94.6480542565
 20
126.5084828425
 10
94.4701121077
 20
126.5180174932
 10
94.3070397794
 20
126.5273333035
 10
94.1584957454
 20
126.536415424
 10
94.0241331321
 20
126.5452446122
 10
93.9037428855
 20
126.5537854117
 10
93.797088877
 20
126.5619930713
 10
93.703831947
 20
126.5698172367
 10
93.6234173329
 20
126.5772120964
 10
93.554938878
 20
126.584156199
 10
93.4976421651
 20
126.5906101069
 10
93.4510643231
 20
126.596490355
 10
93.419932895
 20
126.6009446625
  0
LINE
  5
32A
100
AcDbEntity
  8
0
100
AcDbLine
 62
7
  6
CONTINUOUS
 10
117.6938279654
 20
125.8579547974
 11
117.2191102359
 21
125.8762348274
  0
LINE
  5
32B
100
AcDbEntity
  8
0
100
AcDbLine
 62
7
  6
CONTINUOUS
 10
117.4367670871
 20
126.4679838604
 11
117.9181853232
 21
126.4485668817
  0
LINE
  5
32C
100
AcDbEntity
  8
0
100
AcDbLine
 62
7
  6
CONTINUOUS
 10
95.9548542505
 20
128.4506673656
 11
95.4723971911
 21
128.4701420954
  0
LINE
  5
32D
100
AcDbEntity
  8
0
100
AcDbLine
 62
7
  6
CONTINUOUS
 10
118.1194695295
 20
125.8402435126
 11
117.6938279654
 21
125.8579547974
  0
LWPOLYLINE
  5
32E
100
AcDbEntity
  8
0
100
AcDbPolyline
 62
7
  6
CONTINUOUS
 90
17
 70
0
 10
117.9181853232
 20
126.4485668817
 10
118.3450360469
 20
126.4297285007
 10
118.538567291
 20
126.4205302557
 10
118.7191671214
 20
126.4114823731
 10
118.8870968838
 20
126.4025880216
 10
119.042561445
 20
126.3938550167
 10
119.1855895096
 20
126.3853045747
 10
119.3162422501
 20
126.3769620003
 10
119.4346573163
 20
126.3688546906
 10
119.5410424727
 20
126.3610128701
 10
119.6357238234
 20
126.3534659666
 10
119.7192961352
 20
126.3462275408
 10
119.7923335767
 20
126.339314938
 10
119.8552790393
 20
126.3327618375
 10
119.9084128699
 20
126.326628858
 10
119.9517999764
 20
126.3210230887
 10
119.9752766765
 20
126.3175878158
  0
LWPOLYLINE
  5
32F
100
AcDbEntity
  8
0
100
AcDbPolyline
 62
7
  6
CONTINUOUS
 90
17
 70
0
 10
95.4723971911
 20
128.4701420954
 10
95.0451823663
 20
128.4890186363
 10
94.8516909017
 20
128.4982281996
 10
94.6712602168
 20
128.5072820059
 10
94.5036691393
 20
128.5161737134
 10
94.3488870961
 20
128.5248837513
 10
94.2068614514
 20
128.5333882971
 10
94.0774572105
 20
128.5416621004
 10
93.9604624443
 20
128.5496780396
 10
93.8555390941
 20
128.5574107947
 10
93.7620223061
 20
128.5648550708
 10
93.6792313458
 20
128.5720073778
 10
93.6066068755
 20
128.5788541937
 10
93.5437298655
 20
128.5853660148
 10
93.4903532271
 20
128.5914868505
 10
93.4464589463
 20
128.5971143522
 10
93.4198287794
 20
128.6009761329
  0
LINE
  5
330
100
AcDbEntity
  8
0
100
AcDbLine
 62
7
  6
CONTINUOUS
 10
118.5002252285
 20
125.8230001691
 11
118.1194695295
 21
125.8402435126
  0
LINE
  5
331
100
AcDbEntity
  8
0
100
AcDbLine
 62
7
  6
CONTINUOUS
 10
118.8398084479
 20
125.8061205099
 11
118.5002252285
 21
125.8230001691
  0
LWPOLYLINE
  5
332
100
AcDbEntity
  8
0
100
AcDbPolyline
 62
7
  6
CONTINUOUS
 90
10
 70
0
 10
119.3874089189
 20
128.3721596507
 10
119.481927366
 20
128.3654433554
 10
119.5858397419
 20
128.3575175239
 10
119.676945765
 20
128.3499729267
 10
119.7561891501
 20
128.3428149825
 10
119.8243686165
 20
128.3360608317
 10
119.8821215416
 20
128.3297459908
 10
119.9298906485
 20
128.323936564
 10
119.9678696357
 20
128.3187514643
 10
119.975165109
 20
128.3176206559
  0
LWPOLYLINE
  5
333
100
AcDbEntity
  8
0
100
AcDbPolyline
 62
7
  6
CONTINUOUS
 90
10
 70
0
 10
136.0478216712
 20
131.4403174425
 10
136.1657214813
 20
131.4308773165
 10
136.4700935491
 20
131.4046430651
 10
136.7436303864
 20
131.379131939
 10
136.9870461519
 20
131.3544220686
 10
137.2009368276
 20
131.33062857
 10
137.3857333425
 20
131.3079236983
 10
137.5416030709
 20
131.2865750036
 10
137.6683651544
 20
131.2670038907
 10
137.7526059444
 20
131.2521428212
  0
LWPOLYLINE
  5
334
100
AcDbEntity
  8
0
100
AcDbPolyline
 62
7
  6
CONTINUOUS
 90
10
 70
0
 10
77.3478216712
 20
130.7003795097
 10
77.1555667988
 20
130.7160701362
 10
76.8740134122
 20
130.7407277024
 10
76.6183706204
 20
130.7648773894
 10
76.388510874
 20
130.7884391997
 10
76.1843983218
 20
130.811298272
 10
76.0061516821
 20
130.8332834901
 10
75.854144984
 20
130.8541291656
 10
75.7291750034
 20
130.8734029074
 10
75.6434879574
 20
130.8884735616
  0
LWPOLYLINE
  5
335
100
AcDbEntity
  8
0
100
AcDbPolyline
 62
7
  6
CONTINUOUS
 90
10
 70
0
 10
136.0478216712
 20
125.4403874206
 10
136.2790150035
 20
125.4213416706
 10
136.5551491712
 20
125.3969282553
 10
136.8057341561
 20
125.373027683
 10
137.0309098423
 20
125.3497200592
 10
137.2307166649
 20
125.3271211705
 10
137.4050318008
 20
125.305404432
 10
137.5534668425
 20
125.2848402405
 10
137.6751976254
 20
125.2658701345
 10
137.7526716538
 20
125.2520982779
  0
LWPOLYLINE
  5
336
100
AcDbEntity
  8
0
100
AcDbPolyline
 62
7
  6
CONTINUOUS
 90
19
 70
0
 10
73.4478380347
 20
135.5634706682
 10
73.482254585
 20
135.2503609739
 10
73.6546924249
 20
134.8025612855
 10
73.9229224532
 20
134.4610537007
 10
74.2023308921
 20
134.2457689682
 10
74.4322515597
 20
134.1266363146
 10
74.6176472301
 20
134.0568547524
 10
74.7843463005
 20
134.0084303608
 10
74.9490868135
 20
133.9697751784
 10
75.1200912765
 20
133.9362559183
 10
75.3036852394
 20
133.9054185493
 10
75.5042853338
 20
133.8759877642
 10
75.7250062464
 20
133.847278101
 10
75.9681718542
 20
133.8188998975
 10
76.2355911676
 20
133.7906223053
 10
76.5287143716
 20
133.7623046518
 10
76.848723982
 20
133.7338599591
 10
77.1965894463
 20
133.7052345601
 10
77.3478216712
 20
133.6936511311
  0
LWPOLYLINE
  5
337
100
AcDbEntity
  8
0
100
AcDbPolyline
 62
7
  6
CONTINUOUS
 90
19
 70
0
 10
73.4478381305
 20
123.5634684711
 10
73.4821797376
 20
123.2507067576
 10
73.654614213
 20
122.8026957004
 10
73.9230322068
 20
122.460947084
 10
74.2025263887
 20
122.2456474578
 10
74.4323104014
 20
122.126609451
 10
74.6174842511
 20
122.0569064604
 10
74.7840975934
 20
122.0084932686
 10
74.9491037529
 20
121.9697700446
 10
75.121010586
 20
121.9360882433
 10
75.3063610197
 20
121.9049983853
 10
75.5097586412
 20
121.8752326321
 10
75.7345123318
 20
121.8461094937
 10
75.9831298022
 20
121.8172432221
 10
76.2575846485
 20
121.7884075718
 10
76.5594671126
 20
121.7594672032
 10
76.8900713268
 20
121.7303411096
 10
77.2504463539
 20
121.700982159
 10
77.3478216712
 20
121.6936060358
  0
LWPOLYLINE
  5
338
100
AcDbEntity
  8
0
100
AcDbPolyline
 62
7
  6
CONTINUOUS
 90
19
 70
0
 10
73.4478378626
 20
129.5635200577
 10
73.482059066
 20
129.2512687619
 10
73.6538392135
 20
128.8040440687
 10
73.9213656433
 20
128.4625499643
 10
74.2004879238
 20
128.2469039169
 10
74.4304180749
 20
128.1274306941
 10
74.6157614646
 20
128.0574715551
 10
74.7822362997
 20
128.0089781375
 10
74.9466768294
 20
127.9702905085
 10
75.1173465096
 20
127.9367533948
 10
75.3006017715
 20
127.9059025444
 10
75.5009072095
 20
127.8764546368
 10
75.721427924
 20
127.8477193075
 10
75.9645412181
 20
127.8193035997
 10
76.2321124049
 20
127.7909742997
 10
76.5256507124
 20
127.7625889305
 10
76.8464001891
 20
127.7340590676
 10
77.1953938984
 20
127.7053298431
 10
77.3478216712
 20
127.6936538976
  0
LINE
  5
339
100
AcDbEntity
  8
0
100
AcDbLine
 62
7
  6
CONTINUOUS
 10
73.4478778773
 20
135.563471078
 11
73.4478216712
 21
135.5703585881
  0
LINE
  5
33A
100
AcDbEntity
  8
0
100
AcDbLine
 62
7
  6
CONTINUOUS
 10
73.4478718054
 20
123.5634687879
 11
73.4478217633
 21
123.5703571845
  0
LINE
  5
33B
100
AcDbEntity
  8
0
100
AcDbLine
 62
7
  6
CONTINUOUS
 10
73.4478713078
 20
129.5635203713
 11
73.4478217287
 21
129.5703594654
  0
LINE
  5
33C
100
AcDbEntity
  8
0
100
AcDbLine
 62
7
  6
CONTINUOUS
 10
70.5478216712
 20
113.810550967
 11
70.5478216712
 21
86.3301662093
  0
LINE
  5
33D
100
AcDbEntity
  8
0
100
AcDbLine
 62
7
  6
CONTINUOUS
 10
70.6978216712
 20
139.0703585881
 11
70.6978216712
 21
114.0703585881
  0
LINE
  5
33E
100
AcDbEntity
  8
0
100
AcDbLine
 62
7
  6
CONTINUOUS
 10
70.6978216712
 20
86.0703585881
 11
70.6978216712
 21
64.0703585881
  0
LINE
  5
33F
100
AcDbEntity
  8
0
100
AcDbLine
 62
7
  6
CONTINUOUS
 10
72.0478216712
 20
185.5940446161
 11
72.0478216712
 21
183.0703585881
  0
LINE
  5
340
100
AcDbEntity
  8
0
100
AcDbLine
 62
7
  6
CONTINUOUS
 10
73.1978216712
 20
139.0703585881
 11
73.1978216712
 21
112.0703585881
  0
LINE
  5
341
100
AcDbEntity
  8
0
100
AcDbLine
 62
7
  6
CONTINUOUS
 10
73.4478216712
 20
147.2703585881
 11
73.4478216712
 21
137.5703585881
  0
LINE
  5
342
100
AcDbEntity
  8
0
100
AcDbLine
 62
7
  6
CONTINUOUS
 10
74.1978216712
 20
104.0703585881
 11
74.1978216712
 21
94.0703585881
  0
LINE
  5
343
100
AcDbEntity
  8
0
100
AcDbLine
 62
7
  6
CONTINUOUS
 10
86.368818488
 20
286.1589673669
 11
71.7728216712
 21
186.0703585881
  0
LINE
  5
344
100
AcDbEntity
  8
0
100
AcDbLine
 62
7
  6
CONTINUOUS
 10
139.4478216712
 20
137.0703585881
 11
136.0478216712
 21
137.0703585881
  0
LINE
  5
345
100
AcDbEntity
  8
0
100
AcDbLine
 62
7
  6
CONTINUOUS
 10
77.3478216712
 20
137.0703585881
 11
73.9478216712
 21
137.0703585881
  0
LINE
  5
346
100
AcDbEntity
  8
0
100
AcDbLine
 62
7
  6
CONTINUOUS
 10
142.6978216712
 20
139.0703585881
 11
139.9478216712
 21
139.0703585881
  0
LINE
  5
347
100
AcDbEntity
  8
0
100
AcDbLine
 62
7
  6
CONTINUOUS
 10
73.4478216712
 20
139.0703585881
 11
70.6978216712
 21
139.0703585881
  0
LWPOLYLINE
  5
348
100
AcDbEntity
  8
0
100
AcDbPolyline
 62
7
  6
CONTINUOUS
 90
10
 70
0
 10
77.3478216712
 20
136.7004216936
 10
77.1184791887
 20
136.7192176557
 10
76.8068764943
 20
136.7468893618
 10
76.5290381027
 20
136.7737986683
 10
76.2846128682
 20
136.7998105754
 10
76.0734414334
 20
136.824718704
 10
75.895765171
 20
136.848182974
 10
75.752051262
 20
136.8696859974
 10
75.6431986249
 20
136.8883994061
 10
75.637842205
 20
136.8894809223
  0
LINE
  5
349
100
AcDbEntity
  8
0
100
AcDbLine
 62
7
  6
CONTINUOUS
 10
76.4477784281
 20
135.5759341207
 11
76.4478216712
 21
135.5703585881
  0
LINE
  5
34A
100
AcDbEntity
  8
0
100
AcDbLine
 62
7
  6
CONTINUOUS
 10
76.4477832445
 20
123.5759654515
 11
76.447821755
 21
123.5703571845
  0
LINE
  5
34B
100
AcDbEntity
  8
0
100
AcDbLine
 62
7
  6
CONTINUOUS
 10
76.4477815691
 20
129.5761573752
 11
76.4478217235
 21
129.5703594654
  0
LINE
  5
34C
100
AcDbEntity
  8
0
100
AcDbLine
 62
7
  6
CONTINUOUS
 10
77.1978216712
 20
117.0703585881
 11
77.1978216712
 21
112.4703585881
  0
LINE
  5
34D
100
AcDbEntity
  8
0
100
AcDbLine
 62
7
  6
CONTINUOUS
 10
77.1978216712
 20
112.0703585881
 11
77.1978216712
 21
73.0703585881
  0
LINE
  5
34E
100
AcDbEntity
  8
0
100
AcDbLine
 62
7
  6
CONTINUOUS
 10
77.1978216712
 20
70.0703585881
 11
77.1978216712
 21
68.7703585881
  0
LINE
  5
34F
100
AcDbEntity
  8
0
100
AcDbLine
 62
7
  6
CONTINUOUS
 10
77.3478216712
 20
117.3301662093
 11
77.3478216712
 21
137.0703585881
  0
LINE
  5
350
100
AcDbEntity
  8
0
100
AcDbLine
 62
7
  6
CONTINUOUS
 10
78.4478216712
 20
70.0703585881
 11
78.4478216712
 21
73.0703585881
  0
LINE
  5
351
100
AcDbEntity
  8
0
100
AcDbLine
 62
7
  6
CONTINUOUS
 10
80.119447003
 20
68.7703585881
 11
80.119447003
 21
62.0703585881
  0
LINE
  5
352
100
AcDbEntity
  8
0
100
AcDbLine
 62
7
  6
CONTINUOUS
 10
80.419447003
 20
67.9703585881
 11
80.419447003
 21
61.8703585881
  0
LINE
  5
353
100
AcDbEntity
  8
0
100
AcDbLine
 62
7
  6
CONTINUOUS
 10
81.1505824022
 20
112.4703585881
 11
81.1505824022
 21
112.3002192632
  0
LINE
  5
354
100
AcDbEntity
  8
0
100
AcDbLine
 62
7
  6
CONTINUOUS
 10
81.1505824022
 20
104.2703585881
 11
81.1505824022
 21
104.4404979131
  0
LINE
  5
355
100
AcDbEntity
  8
0
100
AcDbLine
 62
7
  6
CONTINUOUS
 10
81.9478216712
 20
115.3693966938
 11
81.9478216712
 21
119.617730644
  0
LINE
  5
356
100
AcDbEntity
  8
0
100
AcDbLine
 62
7
  6
CONTINUOUS
 10
82.4978216712
 20
120.5703585881
 11
82.4978216712
 21
124.0703585881
  0
LINE
  5
357
100
AcDbEntity
  8
0
100
AcDbLine
 62
7
  6
CONTINUOUS
 10
82.6978216712
 20
114.0703585881
 11
82.6978216712
 21
112.1672060495
  0
LINE
  5
358
100
AcDbEntity
  8
0
100
AcDbLine
 62
7
  6
CONTINUOUS
 10
82.6978216712
 20
104.5735111268
 11
82.6978216712
 21
68.7703585881
  0
LINE
  5
359
100
AcDbEntity
  8
0
100
AcDbLine
 62
7
  6
CONTINUOUS
 10
82.8978216712
 20
120.0703552594
 11
82.8978216712
 21
117.7703607297
  0
LINE
  5
35A
100
AcDbEntity
  8
0
100
AcDbLine
 62
7
  6
CONTINUOUS
 10
75.1978216712
 20
71.806256973
 11
74.4478216712
 21
61.0703585881
  0
LINE
  5
35B
100
AcDbEntity
  8
0
100
AcDbLine
 62
7
  6
CONTINUOUS
 10
155.6978216712
 20
148.0703585881
 11
140.7478216712
 21
148.0703585881
  0
LINE
  5
35C
100
AcDbEntity
  8
0
100
AcDbLine
 62
7
  6
CONTINUOUS
 10
72.6478216712
 20
148.0703585881
 11
57.6978216712
 21
148.0703585881
  0
LINE
  5
35D
100
AcDbEntity
  8
0
100
AcDbLine
 62
7
  6
CONTINUOUS
 10
62.8246184409
 20
166.8703585881
 11
56.6978216712
 21
170.4076663524
  0
LINE
  5
35E
100
AcDbEntity
  8
0
100
AcDbLine
 62
7
  6
CONTINUOUS
 10
122.1978216712
 20
124.0703585881
 11
121.1978216712
 21
125.0703585881
  0
LINE
  5
35F
100
AcDbEntity
  8
0
100
AcDbLine
 62
7
  6
CONTINUOUS
 10
71.7728216712
 20
186.0703585881
 11
72.0478216712
 21
185.5940446161
  0
LINE
  5
360
100
AcDbEntity
  8
0
100
AcDbLine
 62
7
  6
CONTINUOUS
 10
136.1978216712
 20
75.2703585881
 11
138.1978216712
 21
71.806256973
  0
LWPOLYLINE
  5
361
100
AcDbEntity
  8
0
100
AcDbPolyline
 62
7
  6
CONTINUOUS
 90
30
 70
0
 10
92.4478268611
 20
125.9565974029
 10
92.4632741675
 20
125.8134006388
 10
92.5358062422
 20
125.6177697295
 10
92.6510713099
 20
125.4627261925
 10
92.7785275929
 20
125.3591735782
 10
92.8845602587
 20
125.3020900717
 10
92.9632797588
 20
125.2718621848
 10
93.0268347494
 20
125.253263704
 10
93.0846014483
 20
125.2397240272
 10
93.1414813399
 20
125.2286750957
 10
93.2005547221
 20
125.2189237875
 10
93.2637965731
 20
125.2098794187
 10
93.3328555534
 20
125.2011916663
 10
93.409346866
 20
125.1926258137
 10
93.4947579702
 20
125.1840317454
 10
93.5905665357
 20
125.1753043238
 10
93.6981742144
 20
125.1663745634
 10
93.8184604587
 20
125.1572306279
 10
93.9520400821
 20
125.1478802099
 10
94.0993761392
 20
125.1383367549
 10
94.2608753502
 20
125.1286119478
 10
94.4370107221
 20
125.1187095425
 10
94.6281898937
 20
125.1086344436
 10
94.8347357825
 20
125.0983932598
 10
95.0568849923
 20
125.0879938497
 10
95.2947862581
 20
125.0774450017
 10
95.54849912
 20
125.0667562062
 10
95.8179929671
 20
125.0559374892
 10
96.1031474945
 20
125.0449992555
 10
96.7212372902
 20
125.0227474696
  0
LWPOLYLINE
  5
362
100
AcDbEntity
  8
0
100
AcDbPolyline
 62
7
  6
CONTINUOUS
 90
29
 70
0
 10
92.4478268612
 20
127.9565980164
 10
92.4631873549
 20
127.8138102065
 10
92.5357007889
 20
127.6179629696
 10
92.6511891182
 20
127.4626069411
 10
92.7788099547
 20
127.3589924675
 10
92.8847100877
 20
127.3020243291
 10
92.9631128345
 20
127.271917836
 10
93.0261677256
 20
127.2534374495
 10
93.083187375
 20
127.2400251668
 10
93.1390149353
 20
127.2291170879
 10
93.196673441
 20
127.2195217901
 10
93.2580948713
 20
127.210647594
 10
93.3245262231
 20
127.2021863121
 10
93.396927814
 20
127.193954586
 10
93.4763696183
 20
127.1858099518
 10
93.5637829931
 20
127.1776619891
 10
93.660060843
 20
127.1694469478
 10
93.7660921447
 20
127.1611171991
 10
93.8827830751
 20
127.152635291
 10
94.0110180867
 20
127.1439738485
 10
94.1514043816
 20
127.1351283911
 10
94.3043963275
 20
127.1261033884
 10
94.4703770472
 20
127.1169052407
 10
94.6496559142
 20
127.1075417979
 10
94.8424784392
 20
127.098021421
 10
95.0491482038
 20
127.0883472145
 10
95.2700009716
 20
127.0785193499
 10
95.505337217
 20
127.0685384696
 10
96.0204711475
 20
127.0481221346
  0
LINE
  5
363
100
AcDbEntity
  8
0
100
AcDbLine
 62
7
  6
CONTINUOUS
 10
93.84048632
 20
129.6703585881
 11
93.8476938135
 21
129.5703759652
  0
LWPOLYLINE
  5
364
100
AcDbEntity
  8
0
100
AcDbPolyline
 62
7
  6
CONTINUOUS
 90
17
 70
0
 10
92.4478217679
 20
129.570720266
 10
92.4492292911
 20
129.526612534
 10
92.476360623
 20
129.3735950441
 10
92.5319205951
 20
129.2379559803
 10
92.6099546658
 20
129.1223849509
 10
92.7039358186
 20
129.0294028007
 10
92.8063143384
 20
128.9594763317
 10
92.9080642738
 20
128.912553634
 10
92.9898435352
 20
128.8882307798
 10
93.0420295822
 20
128.878185485
 10
93.0742552579
 20
128.8739051268
 10
93.0961101441
 20
128.8717504382
 10
93.1128856807
 20
128.8704448351
 10
93.1274128201
 20
128.8695090831
 10
93.141328632
 20
128.8687417756
 10
93.1555351294
 20
128.8680551457
 10
93.1869474843
 20
128.8667682436
  0
LINE
  5
365
100
AcDbEntity
  8
0
100
AcDbLine
 62
7
  6
CONTINUOUS
 10
86.2100204226
 20
67.9703585881
 11
86.2100204226
 21
61.8703585881
  0
LINE
  5
366
100
AcDbEntity
  8
0
100
AcDbLine
 62
7
  6
CONTINUOUS
 10
62.8246184409
 20
158.8703585881
 11
64.1978216712
 21
158.8703585881
  0
LINE
  5
367
100
AcDbEntity
  8
0
100
AcDbLine
 62
7
  6
CONTINUOUS
 10
149.1978216712
 20
158.8703585881
 11
150.5710249014
 21
158.8703585881
  0
LINE
  5
368
100
AcDbEntity
  8
0
100
AcDbLine
 62
7
  6
CONTINUOUS
 10
129.9978192271
 20
120.5703577734
 11
130.4978216712
 21
120.0703552594
  0
LINE
  5
369
100
AcDbEntity
  8
0
100
AcDbLine
 62
7
  6
CONTINUOUS
 10
92.4478398431
 20
125.9565975149
 11
92.4478216712
 21
125.9592472407
  0
LINE
  5
36A
100
AcDbEntity
  8
0
100
AcDbLine
 62
7
  6
CONTINUOUS
 10
92.4478398433
 20
127.9565981283
 11
92.4478216712
 21
127.9592478719
  0
LINE
  5
36B
100
AcDbEntity
  8
0
100
AcDbLine
 62
7
  6
CONTINUOUS
 10
93.8478068394
 20
123.9675738951
 11
93.8478216712
 21
123.9653238676
  0
LINE
  5
36C
100
AcDbEntity
  8
0
100
AcDbLine
 62
7
  6
CONTINUOUS
 10
93.8478061779
 20
125.9615784951
 11
93.8478216712
 21
125.9592472407
  0
LINE
  5
36D
100
AcDbEntity
  8
0
100
AcDbLine
 62
7
  6
CONTINUOUS
 10
93.8478063923
 20
127.9615529198
 11
93.8478216712
 21
127.9592478719
  0
LINE
  5
36E
100
AcDbEntity
  8
0
100
AcDbLine
 62
7
  6
CONTINUOUS
 10
92.4478357496
 20
123.9626825074
 11
92.4478216712
 21
123.9653238676
  0
LINE
  5
36F
100
AcDbEntity
  8
0
100
AcDbLine
 62
7
  6
CONTINUOUS
 10
92.1978216712
 20
125.0703585881
 11
92.1978216712
 21
131.0703585881
  0
LINE
  5
370
100
AcDbEntity
  8
0
100
AcDbLine
 62
7
  6
CONTINUOUS
 10
93.9478216712
 20
274.3703585881
 11
93.9478216712
 21
279.9373458863
  0
LINE
  5
371
100
AcDbEntity
  8
0
100
AcDbLine
 62
7
  6
CONTINUOUS
 10
94.1978216712
 20
280.3703585881
 11
94.1978216712
 21
285.8703585881
  0
LINE
  5
372
100
AcDbEntity
  8
0
100
AcDbLine
 62
2
  6
CONTINUOUS
 10
94.6978216712
 20
273.9373458863
 11
94.6978216712
 21
240.8703585881
  0
LINE
  5
373
100
AcDbEntity
  8
0
100
AcDbLine
 62
7
  6
CONTINUOUS
 10
95.6978216712
 20
120.5703585881
 11
95.6978216712
 21
114.5703585881
  0
LINE
  5
374
100
AcDbEntity
  8
0
100
AcDbLine
 62
7
  6
CONTINUOUS
 10
96.0978216712
 20
232.8703585881
 11
96.0978216712
 21
273.1290555094
  0
LINE
  5
375
100
AcDbEntity
  8
0
100
AcDbLine
 62
7
  6
CONTINUOUS
 10
92.4480542461
 20
129.5707198251
 11
92.4551570223
 21
129.6703585881
  0
LINE
  5
376
100
AcDbEntity
  8
0
100
AcDbLine
 62
7
  6
CONTINUOUS
 10
56.6978216712
 20
155.3330508239
 11
62.8246184409
 21
158.8703585881
  0
LINE
  5
377
100
AcDbEntity
  8
0
100
AcDbLine
 62
7
  6
CONTINUOUS
 10
62.8246184409
 20
166.8703585881
 11
64.1978216712
 21
166.8703585881
  0
LINE
  5
378
100
AcDbEntity
  8
0
100
AcDbLine
 62
7
  6
CONTINUOUS
 10
149.1978216712
 20
166.8703585881
 11
150.5710249014
 21
166.8703585881
  0
LINE
  5
379
100
AcDbEntity
  8
0
100
AcDbLine
 62
7
  6
CONTINUOUS
 10
100.6978216712
 20
131.5703585881
 11
100.6978216712
 21
230.2145473499
  0
LINE
  5
37A
100
AcDbEntity
  8
3_ALL_AXES
100
AcDbLine
 62
7
  6
CENTER
 10
106.6978216712
 20
55.0703585881
 11
106.6978216712
 21
290.580758427
  0
LINE
  5
37B
100
AcDbEntity
  8
0
100
AcDbLine
 62
7
  6
CONTINUOUS
 10
70.6978216712
 20
114.0703585881
 11
70.5478216712
 21
113.810550967
  0
LINE
  5
37C
100
AcDbEntity
  8
0
100
AcDbLine
 62
7
  6
CONTINUOUS
 10
131.4478216712
 20
119.617730644
 11
130.8978216712
 21
120.5703585881
  0
LINE
  5
37D
100
AcDbEntity
  8
0
100
AcDbLine
 62
7
  6
CONTINUOUS
 10
136.1978216712
 20
117.0703585881
 11
136.0478216712
 21
117.3301662093
  0
LINE
  5
37E
100
AcDbEntity
  8
0
100
AcDbLine
 62
7
  6
CONTINUOUS
 10
142.6978216712
 20
114.0703585881
 11
142.8478216712
 21
113.810550967
  0
LWPOLYLINE
  5
37F
100
AcDbEntity
  8
0
100
AcDbPolyline
 62
7
  6
CONTINUOUS
 90
23
 70
0
 10
120.9478162217
 20
124.9619623765
 10
120.9331991357
 20
125.1011347482
 10
120.8605526238
 20
125.2994149262
 10
120.7437663529
 20
125.456586902
 10
120.6146812877
 20
125.5608819224
 10
120.5083266385
 20
125.6176196327
 10
120.4298120875
 20
125.6474686551
 10
120.3664719706
 20
125.6658336973
 10
120.3090537601
 20
125.6791904322
 10
120.252706254
 20
125.6900782835
 10
120.1944491693
 20
125.6996684165
 10
120.1324239476
 20
125.7085375801
 10
120.0654804138
 20
125.7169827705
 10
119.9928828501
 20
125.725166886
 10
119.9138359072
 20
125.733214488
 10
119.8277409258
 20
125.7411993749
 10
119.7341197341
 20
125.749167631
 10
119.6325681907
 20
125.7571496168
 10
119.522737144
 20
125.7651657629
 10
119.4043203715
 20
125.7732300236
 10
119.2770468167
 20
125.7813520065
 10
119.1406755529
 20
125.7895383279
 10
118.8398084479
 20
125.8061205099
  0
LWPOLYLINE
  5
380
100
AcDbEntity
  8
0
100
AcDbPolyline
 62
7
  6
CONTINUOUS
 90
29
 70
0
 10
120.9478163622
 20
126.9619276793
 10
120.9332626877
 20
127.1008274799
 10
120.861112317
 20
127.2983864401
 10
120.7451669621
 20
127.455162412
 10
120.6165574037
 20
127.5596805108
 10
120.5099483684
 20
127.6169066111
 10
120.430974046
 20
127.6470892736
 10
120.3671406472
 20
127.6656621936
 10
120.3090936229
 20
127.6791825949
 10
120.2519273722
 20
127.6902170246
 10
120.1926153133
 20
127.6999489183
 10
120.1292849807
 20
127.708957549
 10
120.0605528477
 20
127.7175676631
 10
119.9851046579
 20
127.7259953649
 10
119.901855703
 20
127.7343702401
 10
119.8098197813
 20
127.7427774525
 10
119.7080568663
 20
127.7512762592
 10
119.5956418581
 20
127.7599100968
 10
119.4717081928
 20
127.7687080591
 10
119.3356369175
 20
127.7776770496
 10
119.1869267887
 20
127.7868163883
 10
119.0251492765
 20
127.7961225836
 10
118.8499499374
 20
127.8055900949
 10
118.6610286759
 20
127.815212925
 10
118.4580271936
 20
127.8249900744
 10
118.2405842561
 20
127.8349218805
 10
118.0083765678
 20
127.8450080272
 10
117.7611203534
 20
127.8552476999
 10
117.2205352589
 20
127.876182529
  0
LINE
  5
381
100
AcDbEntity
  8
0
100
AcDbLine
 62
7
  6
CONTINUOUS
 10
112.6978216712
 20
131.5703585881
 11
112.6978216712
 21
230.2145473499
  0
LINE
  5
382
100
AcDbEntity
  8
0
100
AcDbLine
 62
7
  6
CONTINUOUS
 10
77.1978216712
 20
117.0703585881
 11
77.3478216712
 21
117.3301662093
  0
LINE
  5
383
100
AcDbEntity
  8
0
100
AcDbLine
 62
7
  6
CONTINUOUS
 10
81.9478216712
 20
119.617730644
 11
82.4978216712
 21
120.5703585881
  0
LINE
  5
384
100
AcDbEntity
  8
0
100
AcDbLine
 62
7
  6
CONTINUOUS
 10
155.6978216712
 20
183.0703585881
 11
141.3478216712
 21
183.0703585881
  0
LINE
  5
385
100
AcDbEntity
  8
0
100
AcDbLine
 62
7
  6
CONTINUOUS
 10
72.0478216712
 20
183.0703585881
 11
57.6978216712
 21
183.0703585881
  0
LINE
  5
386
100
AcDbEntity
  8
0
100
AcDbLine
 62
7
  6
CONTINUOUS
 10
156.6978216712
 20
155.3330508239
 11
150.5710249014
 21
158.8703585881
  0
LINE
  5
387
100
AcDbEntity
  8
0
100
AcDbLine
 62
7
  6
CONTINUOUS
 10
120.947802915
 20
124.9619622605
 11
120.9478216712
 21
124.9592470897
  0
LINE
  5
388
100
AcDbEntity
  8
0
100
AcDbLine
 62
7
  6
CONTINUOUS
 10
120.9478032213
 20
126.9619275654
 11
120.9478216712
 21
126.9592476331
  0
LINE
  5
389
100
AcDbEntity
  8
0
100
AcDbLine
 62
7
  6
CONTINUOUS
 10
120.9478047783
 20
128.9617453555
 11
120.9478216712
 21
128.9592475624
  0
LINE
  5
38A
100
AcDbEntity
  8
0
100
AcDbLine
 62
7
  6
CONTINUOUS
 10
119.5478368316
 20
124.9569991729
 11
119.5478216712
 21
124.9592470897
  0
LINE
  5
38B
100
AcDbEntity
  8
0
100
AcDbLine
 62
7
  6
CONTINUOUS
 10
119.547836487
 20
126.9570013151
 11
119.5478216712
 21
126.9592476331
  0
LINE
  5
38C
100
AcDbEntity
  8
0
100
AcDbLine
 62
7
  6
CONTINUOUS
 10
119.5478334792
 20
128.9573850989
 11
119.5478216712
 21
128.9592475624
  0
LINE
  5
38D
100
AcDbEntity
  8
0
100
AcDbLine
 62
7
  6
CONTINUOUS
 10
117.2978216712
 20
232.8703585881
 11
117.2978216712
 21
273.1290555094
  0
LINE
  5
38E
100
AcDbEntity
  8
0
100
AcDbLine
 62
7
  6
CONTINUOUS
 10
117.6978216712
 20
120.5703585881
 11
117.6978216712
 21
114.5703585881
  0
LINE
  5
38F
100
AcDbEntity
  8
0
100
AcDbLine
 62
2
  6
CONTINUOUS
 10
118.6978216712
 20
273.9373458863
 11
118.6978216712
 21
240.8703585881
  0
LINE
  5
390
100
AcDbEntity
  8
0
100
AcDbLine
 62
7
  6
CONTINUOUS
 10
119.1978216712
 20
280.3703585881
 11
119.1978216712
 21
285.8703585881
  0
LINE
  5
391
100
AcDbEntity
  8
0
100
AcDbLine
 62
7
  6
CONTINUOUS
 10
119.4478216712
 20
274.3703585881
 11
119.4478216712
 21
279.9373458863
  0
LINE
  5
392
100
AcDbEntity
  8
0
100
AcDbLine
 62
7
  6
CONTINUOUS
 10
121.1978216712
 20
125.0703585881
 11
121.1978216712
 21
131.0703585881
  0
LINE
  5
393
100
AcDbEntity
  8
0
100
AcDbLine
 62
7
  6
CONTINUOUS
 10
138.1978216712
 20
71.806256973
 11
138.9478216712
 21
61.0703585881
  0
LINE
  5
394
100
AcDbEntity
  8
0
100
AcDbLine
 62
7
  6
CONTINUOUS
 10
127.1856229197
 20
67.9703585881
 11
127.1856229197
 21
61.8703585881
  0
LINE
  5
395
100
AcDbEntity
  8
0
100
AcDbLine
 62
7
  6
CONTINUOUS
 10
130.4978216712
 20
120.0703552594
 11
130.4978216712
 21
117.7703607297
  0
LINE
  5
396
100
AcDbEntity
  8
0
100
AcDbLine
 62
7
  6
CONTINUOUS
 10
130.6978216712
 20
114.0703585881
 11
130.6978216712
 21
112.1672060495
  0
LINE
  5
397
100
AcDbEntity
  8
0
100
AcDbLine
 62
7
  6
CONTINUOUS
 10
130.6978216712
 20
104.5735111268
 11
130.6978216712
 21
68.7703585881
  0
LINE
  5
398
100
AcDbEntity
  8
0
100
AcDbLine
 62
7
  6
CONTINUOUS
 10
130.8978216712
 20
120.5703585881
 11
130.8978216712
 21
124.0703585881
  0
LINE
  5
399
100
AcDbEntity
  8
0
100
AcDbLine
 62
7
  6
CONTINUOUS
 10
131.4478216712
 20
115.3693966938
 11
131.4478216712
 21
119.617730644
  0
LINE
  5
39A
100
AcDbEntity
  8
0
100
AcDbLine
 62
7
  6
CONTINUOUS
 10
132.2450609401
 20
112.4703585881
 11
132.2450609401
 21
112.3002192632
  0
LINE
  5
39B
100
AcDbEntity
  8
0
100
AcDbLine
 62
7
  6
CONTINUOUS
 10
132.2450609401
 20
104.2703585881
 11
132.2450609401
 21
104.4404979131
  0
LINE
  5
39C
100
AcDbEntity
  8
0
100
AcDbLine
 62
7
  6
CONTINUOUS
 10
77.1978216712
 20
75.2703585881
 11
75.1978216712
 21
71.806256973
  0
LINE
  5
39D
100
AcDbEntity
  8
0
100
AcDbLine
 62
7
  6
CONTINUOUS
 10
141.6228216712
 20
186.0703585881
 11
141.3478216712
 21
185.5940446161
  0
LINE
  5
39E
100
AcDbEntity
  8
0
100
AcDbLine
 62
7
  6
CONTINUOUS
 10
83.39782493
 20
120.5703585881
 11
82.8978216712
 21
120.0703552594
  0
LINE
  5
39F
100
AcDbEntity
  8
0
100
AcDbLine
 62
7
  6
CONTINUOUS
 10
91.1978216712
 20
124.0703585881
 11
92.1978216712
 21
125.0703585881
  0
LWPOLYLINE
  5
3A0
100
AcDbEntity
  8
0
100
AcDbPolyline
 62
7
  6
CONTINUOUS
 90
19
 70
0
 10
139.9478058261
 20
126.5771166059
 10
139.9161290357
 20
126.8773981378
 10
139.7469996175
 20
127.3275666018
 10
139.4797475506
 20
127.6728813464
 10
139.1987285724
 20
127.8916057506
 10
138.9667538329
 20
128.0126235898
 10
138.7797961146
 20
128.083274087
 10
138.6119183976
 20
128.1321255474
 10
138.4462690605
 20
128.171002997
 10
138.2742056509
 20
128.2047042602
 10
138.0891071461
 20
128.2357443676
 10
137.8865251361
 20
128.2653947038
 10
137.6633488756
 20
128.294334095
 10
137.4173044936
 20
128.3229431223
 10
137.1466810734
 20
128.3514420878
 10
136.8501754841
 20
128.379960248
 10
136.5268014034
 20
128.4085726519
 10
136.1758343817
 20
128.4373207398
 10
136.0478216712
 20
128.4470818969
  0
LWPOLYLINE
  5
3A1
100
AcDbEntity
  8
0
100
AcDbPolyline
 62
7
  6
CONTINUOUS
 90
19
 70
0
 10
139.9478065191
 20
120.5769779496
 10
139.9165896279
 20
120.8751648973
 10
139.7492755905
 20
121.3235309073
 10
139.4841627093
 20
121.6685770576
 10
139.2040543361
 20
121.8882920944
 10
138.9719421994
 20
122.0103601629
 10
138.7849386091
 20
122.0815852736
 10
138.6176195604
 20
122.1306424699
 10
138.4530495442
 20
122.1695517412
 10
138.2827297921
 20
122.2031588717
 10
138.1000682827
 20
122.2340243505
 10
137.9006052894
 20
122.2634502255
 10
137.6812022599
 20
122.2921352818
 10
137.439527386
 20
122.3204756922
 10
137.173774955
 20
122.3487054032
 10
136.882506774
 20
122.3769663664
 10
136.5645595644
 20
122.4053458157
 10
136.2189894918
 20
122.433897072
 10
136.0478216712
 20
122.4470588472
  0
LWPOLYLINE
  5
3A2
100
AcDbEntity
  8
0
100
AcDbPolyline
 62
7
  6
CONTINUOUS
 90
19
 70
0
 10
139.9478069996
 20
132.5768778788
 10
139.9170262327
 20
132.8730347544
 10
139.751064095
 20
133.32034189
 10
139.4872907129
 20
133.6655097562
 10
139.2077564207
 20
133.8859751875
 10
138.9757371889
 20
134.0086956274
 10
138.7889861941
 20
134.0802495003
 10
138.622141496
 20
134.1294609282
 10
138.4578969288
 20
134.1685102963
 10
138.2874854806
 20
134.202294191
 10
138.1041304498
 20
134.2333859842
 10
137.9031851326
 20
134.2630946292
 10
137.6813292314
 20
134.2921218867
 10
137.436070181
 20
134.3208631717
 10
137.1654698349
 20
134.3495489698
 10
136.8679901234
 20
134.3783159183
 10
136.5424036427
 20
134.4072446449
 10
136.1877412415
 20
134.4363808993
 10
136.0478216712
 20
134.4470678672
  0
LINE
  5
3A3
100
AcDbEntity
  8
0
100
AcDbLine
 62
7
  6
CONTINUOUS
 10
139.9477739595
 20
120.5769776481
 11
139.9478216352
 21
120.5703578205
  0
LINE
  5
3A4
100
AcDbEntity
  8
0
100
AcDbLine
 62
7
  6
CONTINUOUS
 10
139.9477726179
 20
126.5771162956
 11
139.9478215805
 21
126.5703581276
  0
LINE
  5
3A5
100
AcDbEntity
  8
0
100
AcDbLine
 62
7
  6
CONTINUOUS
 10
139.9477749204
 20
132.5768775838
 11
139.9478216524
 21
132.5703600138
  0
LINE
  5
3A6
100
AcDbEntity
  8
0
100
AcDbLine
 62
7
  6
CONTINUOUS
 10
136.9478604476
 20
120.5647285063
 11
136.9478216384
 21
120.5703578205
  0
LINE
  5
3A7
100
AcDbEntity
  8
0
100
AcDbLine
 62
7
  6
CONTINUOUS
 10
136.9478603883
 20
126.5647299247
 11
136.9478215887
 21
126.5703581276
  0
LINE
  5
3A8
100
AcDbEntity
  8
0
100
AcDbLine
 62
7
  6
CONTINUOUS
 10
136.9478599572
 20
132.564789379
 11
136.9478216541
 21
132.5703600138
  0
LINE
  5
3A9
100
AcDbEntity
  8
0
100
AcDbLine
 62
7
  6
CONTINUOUS
 10
132.9761963393
 20
67.9703585881
 11
132.9761963393
 21
61.8703585881
  0
LINE
  5
3AA
100
AcDbEntity
  8
0
100
AcDbLine
 62
7
  6
CONTINUOUS
 10
133.2761963393
 20
68.7703585881
 11
133.2761963393
 21
62.0703585881
  0
LINE
  5
3AB
100
AcDbEntity
  8
0
100
AcDbLine
 62
7
  6
CONTINUOUS
 10
134.9478216712
 20
70.0703585881
 11
134.9478216712
 21
73.0703585881
  0
LINE
  5
3AC
100
AcDbEntity
  8
0
100
AcDbLine
 62
7
  6
CONTINUOUS
 10
136.0478216712
 20
117.3301662093
 11
136.0478216712
 21
137.0703585881
  0
LINE
  5
3AD
100
AcDbEntity
  8
0
100
AcDbLine
 62
7
  6
CONTINUOUS
 10
136.1978216712
 20
117.0703585881
 11
136.1978216712
 21
112.4703585881
  0
LINE
  5
3AE
100
AcDbEntity
  8
0
100
AcDbLine
 62
7
  6
CONTINUOUS
 10
136.1978216712
 20
112.0703585881
 11
136.1978216712
 21
73.0703585881
  0
LINE
  5
3AF
100
AcDbEntity
  8
0
100
AcDbLine
 62
7
  6
CONTINUOUS
 10
136.1978216712
 20
70.0703585881
 11
136.1978216712
 21
68.7703585881
  0
LINE
  5
3B0
100
AcDbEntity
  8
0
100
AcDbLine
 62
7
  6
CONTINUOUS
 10
139.1978216712
 20
104.0703585881
 11
139.1978216712
 21
94.0703585881
  0
LINE
  5
3B1
100
AcDbEntity
  8
0
100
AcDbLine
 62
7
  6
CONTINUOUS
 10
139.9478216712
 20
147.2703585881
 11
139.9478216712
 21
137.5703585881
  0
LINE
  5
3B2
100
AcDbEntity
  8
0
100
AcDbLine
 62
7
  6
CONTINUOUS
 10
140.1978216712
 20
139.0703585881
 11
140.1978216712
 21
112.0703585881
  0
LINE
  5
3B3
100
AcDbEntity
  8
0
100
AcDbLine
 62
7
  6
CONTINUOUS
 10
150.5710249014
 20
166.8703585881
 11
156.6978216712
 21
170.4076663524
  0
LINE
  5
3B4
100
AcDbEntity
  8
0
100
AcDbLine
 62
7
  6
CONTINUOUS
 10
141.3478216712
 20
185.5940446161
 11
141.3478216712
 21
183.0703585881
  0
LINE
  5
3B5
100
AcDbEntity
  8
0
100
AcDbLine
 62
7
  6
CONTINUOUS
 10
142.6978216712
 20
139.0703585881
 11
142.6978216712
 21
114.0703585881
  0
LINE
  5
3B6
100
AcDbEntity
  8
0
100
AcDbLine
 62
7
  6
CONTINUOUS
 10
142.6978216712
 20
86.0703585881
 11
142.6978216712
 21
64.0703585881
  0
LINE
  5
3B7
100
AcDbEntity
  8
0
100
AcDbLine
 62
7
  6
CONTINUOUS
 10
142.8478216712
 20
113.810550967
 11
142.8478216712
 21
86.3301662093
  0
LINE
  5
3B8
100
AcDbEntity
  8
0
100
AcDbLine
 62
7
  6
CONTINUOUS
 10
155.6978216712
 20
183.0703585881
 11
156.6978216712
 21
182.0703585881
  0
LINE
  5
3B9
100
AcDbEntity
  8
0
100
AcDbLine
 62
7
  6
CONTINUOUS
 10
127.0268248543
 20
286.1589673669
 11
141.6228216712
 21
186.0703585881
  0
LINE
  5
3BA
100
AcDbEntity
  8
0
100
AcDbLine
 62
7
  6
CONTINUOUS
 10
149.1978216712
 20
158.8703585881
 11
149.1978216712
 21
166.8703585881
  0
LINE
  5
3BB
100
AcDbEntity
  8
0
100
AcDbLine
 62
7
  6
CONTINUOUS
 10
156.6978216712
 20
182.0703585881
 11
156.6978216712
 21
170.4076663524
  0
LINE
  5
3BC
100
AcDbEntity
  8
0
100
AcDbLine
 62
7
  6
CONTINUOUS
 10
156.6978216712
 20
155.3330508239
 11
156.6978216712
 21
149.0703585881
  0
LINE
  5
3BD
100
AcDbEntity
  8
0
100
AcDbLine
 62
7
  6
CONTINUOUS
 10
139.9478216712
 20
137.5703585881
 11
139.4478216712
 21
137.0703585881
  0
LINE
  5
3BE
100
AcDbEntity
  8
0
100
AcDbLine
 62
7
  6
CONTINUOUS
 10
100.6978216712
 20
230.2145473499
 11
96.0978216712
 21
232.8703585881
  0
LINE
  5
3BF
100
AcDbEntity
  8
0
100
AcDbLine
 62
7
  6
CONTINUOUS
 10
130.6978216712
 20
114.0703585881
 11
131.4478216712
 21
115.3693966938
  0
LINE
  5
3C0
100
AcDbEntity
  8
0
100
AcDbLine
 62
7
  6
CONTINUOUS
 10
156.6978216712
 20
149.0703585881
 11
155.6978216712
 21
148.0703585881
  0
LINE
  5
3C1
100
AcDbEntity
  8
0
100
AcDbLine
 62
7
  6
CONTINUOUS
 10
130.2978195476
 20
117.5703585881
 11
130.4978216712
 21
117.7703607297
  0
LINE
  5
3C2
100
AcDbEntity
  8
0
100
AcDbLine
 62
7
  6
CONTINUOUS
 10
112.6978216712
 20
230.2145473499
 11
100.6978216712
 21
230.2145473499
  0
LINE
  5
3C3
100
AcDbEntity
  8
0
100
AcDbLine
 62
7
  6
CONTINUOUS
 10
96.0978216712
 20
232.8703585881
 11
117.2978216712
 21
232.8703585881
  0
LINE
  5
3C4
100
AcDbEntity
  8
0
100
AcDbLine
 62
7
  6
CONTINUOUS
 10
80.419447003
 20
61.8703585881
 11
80.3336659714
 21
61.7845775566
  0
LINE
  5
3C5
100
AcDbEntity
  8
0
100
AcDbLine
 62
7
  6
CONTINUOUS
 10
118.6978216712
 20
240.8703585881
 11
94.6978216712
 21
240.8703585881
  0
LINE
  5
3C6
100
AcDbEntity
  8
0
100
AcDbLine
 62
7
  6
CONTINUOUS
 10
119.4478216712
 20
279.9373458863
 11
119.1978216712
 21
280.3703585881
  0
LINE
  5
3C7
100
AcDbEntity
  8
0
100
AcDbLine
 62
7
  6
CONTINUOUS
 10
142.8478216712
 20
86.3301662093
 11
142.6978216712
 21
86.0703585881
  0
LINE
  5
3C8
100
AcDbEntity
  8
0
100
AcDbLine
 62
7
  6
CONTINUOUS
 10
142.6978216712
 20
64.0703585881
 11
141.4478216712
 21
61.0703585881
  0
LINE
  5
3C9
100
AcDbEntity
  8
0
100
AcDbLine
 62
7
  6
CONTINUOUS
 10
96.0978216712
 20
273.1290555094
 11
93.9478216712
 21
274.3703585881
  0
LINE
  5
3CA
100
AcDbEntity
  8
0
100
AcDbLine
 62
7
  6
CONTINUOUS
 10
96.0978216712
 20
273.1290555094
 11
117.2978216712
 21
273.1290555094
  0
LINE
  5
3CB
100
AcDbEntity
  8
0
100
AcDbLine
 62
7
  6
CONTINUOUS
 10
94.6978216712
 20
273.9373458863
 11
118.6978216712
 21
273.9373458863
  0
LINE
  5
3CC
100
AcDbEntity
  8
0
100
AcDbLine
 62
7
  6
CONTINUOUS
 10
93.9478216712
 20
274.3703585881
 11
119.4478216712
 21
274.3703585881
  0
LINE
  5
3CD
100
AcDbEntity
  8
0
100
AcDbLine
 62
7
  6
CONTINUOUS
 10
93.9478216712
 20
279.9373458863
 11
119.4478216712
 21
279.9373458863
  0
LINE
  5
3CE
100
AcDbEntity
  8
0
100
AcDbLine
 62
7
  6
CONTINUOUS
 10
94.1978216712
 20
280.3703585881
 11
119.1978216712
 21
280.3703585881
  0
LINE
  5
3CF
100
AcDbEntity
  8
0
100
AcDbLine
 62
7
  6
CONTINUOUS
 10
94.1978216712
 20
285.8703585881
 11
119.1978216712
 21
285.8703585881
  0
LINE
  5
3D0
100
AcDbEntity
  8
0
100
AcDbLine
 62
7
  6
CONTINUOUS
 10
88.3478851804
 20
287.8703585881
 11
125.0477581619
 21
287.8703585881
  0
ARC
  5
3D1
100
AcDbEntity
  8
0
100
AcDbCircle
 62
7
  6
CONTINUOUS
 10
47.0992114967
 20
108.2813168497
 40
30.3886872172
100
AcDbArc
 50
6.6094576042
 51
7.3355723221
  0
ARC
  5
3D2
100
AcDbEntity
  8
0
100
AcDbCircle
 62
7
  6
CONTINUOUS
 10
47.5408539476
 20
108.401458058
 40
29.9432884553
100
AcDbArc
 50
352.2127622321
 51
359.9404918838
  0
ARC
  5
3D3
100
AcDbEntity
  8
0
100
AcDbCircle
 62
7
  6
CONTINUOUS
 10
47.9951833936
 20
108.3658785879
 40
29.4889431995
100
AcDbArc
 50
0.0087044526
 51
6.6466218239
  0
CIRCLE
  5
3D4
100
AcDbEntity
  8
0
100
AcDbCircle
 62
2
  6
CONTINUOUS
 10
54.7628216712
 20
162.8703585881
 40
7.495
  0
ARC
  5
3D5
100
AcDbEntity
  8
0
100
AcDbCircle
 62
7
  6
CONTINUOUS
 10
72.6478216712
 20
147.2703585881
 40
0.8
100
AcDbArc
 50
0.0
 51
89.9999999994
  0
ARC
  5
3D6
100
AcDbEntity
  8
0
100
AcDbCircle
 62
7
  6
CONTINUOUS
 10
81.1505824022
 20
108.3703585881
 40
4.1
100
AcDbArc
 50
67.8287947002
 51
90.0
  0
ARC
  5
3D7
100
AcDbEntity
  8
0
100
AcDbCircle
 62
7
  6
CONTINUOUS
 10
81.1505824022
 20
108.3703585881
 40
4.1
100
AcDbArc
 50
270.0
 51
292.1712052998
  0
CIRCLE
  5
3D8
100
AcDbEntity
  8
0
100
AcDbCircle
 62
7
  6
CONTINUOUS
 10
81.6978216712
 20
108.3703585881
 40
3.969
  0
ARC
  5
3D9
100
AcDbEntity
  8
0
100
AcDbCircle
 62
7
  6
CONTINUOUS
 10
83.7278216712
 20
115.8003585881
 40
1.77
100
AcDbArc
 50
315.9795355472
 51
90.0
  0
CIRCLE
  5
3DA
100
AcDbEntity
  8
0
100
AcDbCircle
 62
7
  6
CONTINUOUS
 10
83.7328216712
 20
115.8076860023
 40
1.765
  0
ARC
  5
3DB
100
AcDbEntity
  8
0
100
AcDbCircle
 62
7
  6
CONTINUOUS
 10
74.9481553144
 20
123.5703010215
 40
1.4996662046
100
AcDbArc
 50
0.2164180673
 51
65.4495455978
  0
ARC
  5
3DC
100
AcDbEntity
  8
0
100
AcDbCircle
 62
7
  6
CONTINUOUS
 10
74.9481579558
 20
129.5703039085
 40
1.499663506
100
AcDbArc
 50
0.2236410786
 51
65.3831542557
  0
ARC
  5
3DD
100
AcDbEntity
  8
0
100
AcDbCircle
 62
7
  6
CONTINUOUS
 10
98.9375977743
 20
115.8349294117
 40
63.9211531382
100
AcDbArc
 50
301.0461781081
 51
302.2660311301
  0
ARC
  5
3DE
100
AcDbEntity
  8
0
100
AcDbCircle
 62
7
  6
CONTINUOUS
 10
93.1479139793
 20
125.9589729534
 40
0.7000910354
100
AcDbArc
 50
69.5999302218
 51
179.9775522385
  0
ARC
  5
3DF
100
AcDbEntity
  8
0
100
AcDbCircle
 62
7
  6
CONTINUOUS
 10
93.1479137454
 20
127.9589739905
 40
0.7000906031
100
AcDbArc
 50
69.6922895234
 51
179.9775854541
  0
ARC
  5
3E0
100
AcDbEntity
  8
0
100
AcDbCircle
 62
7
  6
CONTINUOUS
 10
93.1478215063
 20
127.9593918791
 40
0.6999486933
100
AcDbArc
 50
180.2286763372
 51
359.9882128559
  0
ARC
  5
3E1
100
AcDbEntity
  8
0
100
AcDbCircle
 62
7
  6
CONTINUOUS
 10
93.1478215063
 20
125.9593912479
 40
0.6999486933
100
AcDbArc
 50
180.2286748895
 51
359.9882128541
  0
ARC
  5
3E2
100
AcDbEntity
  8
0
100
AcDbCircle
 62
7
  6
CONTINUOUS
 10
93.1478218249
 20
123.9651798163
 40
0.6999486076
100
AcDbArc
 50
0.1959613901
 51
179.9882092405
  0
ARC
  5
3E3
100
AcDbEntity
  8
0
100
AcDbCircle
 62
7
  6
CONTINUOUS
 10
93.1478212775
 20
129.5703897244
 40
0.6998492241
100
AcDbArc
 50
179.9729753088
 51
359.9988729641
  0
ARC
  5
3E4
100
AcDbEntity
  8
0
100
AcDbCircle
 62
7
  6
CONTINUOUS
 10
93.1507689251
 20
127.966182276
 40
0.6923526669
100
AcDbArc
 50
65.182483205
 51
69.7068533776
  0
ARC
  5
3E5
100
AcDbEntity
  8
0
100
AcDbCircle
 62
7
  6
CONTINUOUS
 10
93.150806539
 20
125.9662695428
 40
0.6922570987
100
AcDbArc
 50
65.1822553319
 51
69.6138141112
  0
ARC
  5
3E6
100
AcDbEntity
  8
0
100
AcDbCircle
 62
7
  6
CONTINUOUS
 10
100.1978216712
 20
131.5703585881
 40
0.5
100
AcDbArc
 50
270.000000009
 51
360.0
  0
ARC
  5
3E7
100
AcDbEntity
  8
0
100
AcDbCircle
 62
7
  6
CONTINUOUS
 10
88.3478851804
 20
285.8703585881
 40
2.0
100
AcDbArc
 50
90.0
 51
171.703
  0
ARC
  5
3E8
100
AcDbEntity
  8
0
100
AcDbCircle
 62
7
  6
CONTINUOUS
 10
92.1978216712
 20
285.8703585881
 40
2.0
100
AcDbArc
 50
0.0
 51
90.0
  0
ARC
  5
3E9
100
AcDbEntity
  8
0
100
AcDbCircle
 62
7
  6
CONTINUOUS
 10
114.5459659003
 20
115.9762256491
 40
64.0875665743
100
AcDbArc
 50
237.7349412222
 51
238.9516051553
  0
CIRCLE
  5
3EA
100
AcDbEntity
  8
0
100
AcDbCircle
 62
7
  6
CONTINUOUS
 10
136.4478216712
 20
70.8203585881
 40
1.25
  0
ARC
  5
3EB
100
AcDbEntity
  8
0
100
AcDbCircle
 62
7
  6
CONTINUOUS
 10
129.6678216712
 20
115.8003585881
 40
1.77
100
AcDbArc
 50
90.0
 51
224.0204644528
  0
CIRCLE
  5
3EC
100
AcDbEntity
  8
0
100
AcDbCircle
 62
7
  6
CONTINUOUS
 10
129.6628216712
 20
115.8076860023
 40
1.765
  0
ARC
  5
3ED
100
AcDbEntity
  8
0
100
AcDbCircle
 62
7
  6
CONTINUOUS
 10
132.2450609401
 20
108.3703585881
 40
4.1
100
AcDbArc
 50
90.0
 51
112.1712052998
  0
ARC
  5
3EE
100
AcDbEntity
  8
0
100
AcDbCircle
 62
7
  6
CONTINUOUS
 10
132.2450609401
 20
108.3703585881
 40
4.1
100
AcDbArc
 50
247.8287947002
 51
270.0
  0
CIRCLE
  5
3EF
100
AcDbEntity
  8
0
100
AcDbCircle
 62
7
  6
CONTINUOUS
 10
131.6978216712
 20
108.3703585881
 40
3.969
  0
ARC
  5
3F0
100
AcDbEntity
  8
0
100
AcDbCircle
 62
7
  6
CONTINUOUS
 10
138.4474902003
 20
126.5704114945
 40
1.4996683627
100
AcDbArc
 50
180.2170726454
 51
245.497924185
  0
ARC
  5
3F1
100
AcDbEntity
  8
0
100
AcDbCircle
 62
7
  6
CONTINUOUS
 10
138.4474879307
 20
132.5704129539
 40
1.4996660331
100
AcDbArc
 50
180.2148571468
 51
245.4354162691
  0
ARC
  5
3F2
100
AcDbEntity
  8
0
100
AcDbCircle
 62
7
  6
CONTINUOUS
 10
138.4474820848
 20
120.5704096862
 40
1.4996601916
100
AcDbArc
 50
180.2170589362
 51
245.287563243
  0
ARC
  5
3F3
100
AcDbEntity
  8
0
100
AcDbCircle
 62
7
  6
CONTINUOUS
 10
117.437438163
 20
123.569220713
 40
0.8959460983
100
AcDbArc
 50
179.9287624762
 51
192.8256129857
  0
ARC
  5
3F4
100
AcDbEntity
  8
0
100
AcDbCircle
 62
7
  6
CONTINUOUS
 10
120.2477287665
 20
126.9595222072
 40
0.7000913963
100
AcDbArc
 50
249.7934220702
 51
359.9775287839
  0
ARC
  5
3F5
100
AcDbEntity
  8
0
100
AcDbCircle
 62
7
  6
CONTINUOUS
 10
120.2478216712
 20
123.5703346688
 40
0.7000000105
100
AcDbArc
 50
343.3984497596
 51
82.8572925862
  0
ARC
  5
3F6
100
AcDbEntity
  8
0
100
AcDbCircle
 62
7
  6
CONTINUOUS
 10
120.2478216712
 20
123.5703346688
 40
0.7000000105
100
AcDbArc
 50
97.1427074138
 51
196.6015502404
  0
ARC
  5
3F7
100
AcDbEntity
  8
0
100
AcDbCircle
 62
7
  6
CONTINUOUS
 10
120.2478222371
 20
124.9591028946
 40
0.6999487253
100
AcDbArc
 50
0.2340473937
 51
179.9881974849
  0
ARC
  5
3F8
100
AcDbEntity
  8
0
100
AcDbCircle
 62
7
  6
CONTINUOUS
 10
120.2478222321
 20
126.9591034483
 40
0.6999487166
100
AcDbArc
 50
0.2311621052
 51
179.9881983253
  0
ARC
  5
3F9
100
AcDbEntity
  8
0
100
AcDbCircle
 62
7
  6
CONTINUOUS
 10
120.2478222061
 20
128.9591034313
 40
0.6999486711
100
AcDbArc
 50
0.2162487452
 51
179.9882027133
  0
ARC
  5
3FA
100
AcDbEntity
  8
0
100
AcDbCircle
 62
7
  6
CONTINUOUS
 10
120.24782118
 20
128.9593913178
 40
0.6999484895
100
AcDbArc
 50
180.1642136167
 51
359.9882334706
  0
ARC
  5
3FB
100
AcDbEntity
  8
0
100
AcDbCircle
 62
7
  6
CONTINUOUS
 10
120.2476954875
 20
124.9592664765
 40
0.6998737243
100
AcDbArc
 50
180.1856182568
 51
246.1084044946
  0
ARC
  5
3FC
100
AcDbEntity
  8
0
100
AcDbCircle
 62
7
  6
CONTINUOUS
 10
120.2466815777
 20
124.9569288407
 40
0.6973372543
100
AcDbArc
 50
249.7435326823
 51
262.9242782518
  0
ARC
  5
3FD
100
AcDbEntity
  8
0
100
AcDbCircle
 62
7
  6
CONTINUOUS
 10
120.2448360292
 20
126.9522211981
 40
0.6922544119
100
AcDbArc
 50
245.2450319177
 51
249.80938675
  0
ARC
  5
3FE
100
AcDbEntity
  8
0
100
AcDbCircle
 62
7
  6
CONTINUOUS
 10
120.2447089645
 20
124.9515864132
 40
0.6916422799
100
AcDbArc
 50
246.0769363939
 51
249.7436105944
  0
ARC
  5
3FF
100
AcDbEntity
  8
0
100
AcDbCircle
 62
7
  6
CONTINUOUS
 10
113.1978216712
 20
131.5703585881
 40
0.5
100
AcDbArc
 50
180.0
 51
269.9999999909
  0
ARC
  5
400
100
AcDbEntity
  8
0
100
AcDbCircle
 62
7
  6
CONTINUOUS
 10
166.2295687703
 20
108.2892715994
 40
30.3213529331
100
AcDbArc
 50
172.8005548813
 51
173.3911935545
  0
ARC
  5
401
100
AcDbEntity
  8
0
100
AcDbCircle
 62
7
  6
CONTINUOUS
 10
165.7105155876
 20
108.3618952856
 40
29.7972913688
100
AcDbArc
 50
172.0747857131
 51
172.8140177068
  0
ARC
  5
402
100
AcDbEntity
  8
0
100
AcDbCircle
 62
7
  6
CONTINUOUS
 10
165.6155439309
 20
108.3533724835
 40
29.7040316981
100
AcDbArc
 50
173.3777046869
 51
179.9672356882
  0
ARC
  5
403
100
AcDbEntity
  8
0
100
AcDbCircle
 62
7
  6
CONTINUOUS
 10
165.5318182804
 20
108.3793072708
 40
29.6203025426
100
AcDbArc
 50
180.0173098082
 51
187.8295592589
  0
CIRCLE
  5
404
100
AcDbEntity
  8
0
100
AcDbCircle
 62
2
  6
CONTINUOUS
 10
158.6328216712
 20
162.8703585881
 40
7.495
  0
ARC
  5
405
100
AcDbEntity
  8
0
100
AcDbCircle
 62
7
  6
CONTINUOUS
 10
140.7478216712
 20
147.2703585881
 40
0.8
100
AcDbArc
 50
90.0000000002
 51
180.0
  0
ARC
  5
406
100
AcDbEntity
  8
0
100
AcDbCircle
 62
7
  6
CONTINUOUS
 10
125.0477581619
 20
285.8703585881
 40
2.0
100
AcDbArc
 50
8.297
 51
90.0
  0
ARC
  5
407
100
AcDbEntity
  8
0
100
AcDbCircle
 62
7
  6
CONTINUOUS
 10
121.1978216712
 20
285.8703585881
 40
2.0
100
AcDbArc
 50
90.0
 51
180.0
  0
SPLINE
  5
408
100
AcDbEntity
  8
0
100
AcDbSpline
 62
7
  6
CONTINUOUS
 70
0
 71
3
 72
11
 73
7
 74
0
 42
0.0000001
 43
0.0000001
 44
0.0000000001
 40
0.0
 40
0.0
 40
0.0
 40
0.0
 40
0.2500047032
 40
0.5000189677
 40
0.7500058333
 40
1.0
 40
1.0
 40
1.0
 40
1.0
 10
119.9549624687
 20
126.3235802118
 30
0.0
 10
119.895010483
 20
126.3512322167
 30
0.0
 10
119.7825161082
 20
126.4242129212
 30
0.0
 10
119.6508093905
 20
126.5756469362
 30
0.0
 10
119.56794164
 20
126.7583763191
 30
0.0
 10
119.5480463364
 20
126.8909826613
 30
0.0
 10
119.5478254303
 20
126.9570012781
 30
0.0
  0
SPLINE
  5
409
100
AcDbEntity
  8
0
100
AcDbSpline
 62
7
  6
CONTINUOUS
 70
0
 71
3
 72
12
 73
8
 74
0
 42
0.0000001
 43
0.0000001
 44
0.0000000001
 40
0.0
 40
0.0
 40
0.0
 40
0.0
 40
0.2497769459
 40
0.3751235018
 40
0.5004638809
 40
0.7502384721
 40
1.0
 40
1.0
 40
1.0
 40
1.0
 10
120.9478216712
 20
124.9592470897
 30
0.0
 10
120.9478216712
 20
124.8753571375
 30
0.0
 10
120.9240102575
 20
124.7480202636
 30
0.0
 10
120.8507225594
 20
124.5960222058
 30
0.0
 10
120.7506012284
 20
124.459923031
 30
0.0
 10
120.5823048827
 20
124.3268260041
 30
0.0
 10
120.4181136975
 20
124.27517621
 30
0.0
 10
120.3348604506
 20
124.2649023513
 30
0.0
  0
SPLINE
  5
40A
100
AcDbEntity
  8
0
100
AcDbSpline
 62
7
  6
CONTINUOUS
 70
0
 71
3
 72
11
 73
7
 74
0
 42
0.0000001
 43
0.0000001
 44
0.0000000001
 40
0.0
 40
0.0
 40
0.0
 40
0.0
 40
0.2500051218
 40
0.5000199001
 40
0.7500059296
 40
1.0
 40
1.0
 40
1.0
 40
1.0
 10
93.4413698288
 20
128.5945956194
 30
0.0
 10
93.5012304952
 20
128.5669066414
 30
0.0
 10
93.613540367
 20
128.493900726
 30
0.0
 10
93.7450080797
 20
128.3425375258
 30
0.0
 10
93.8277255179
 20
128.1599717339
 30
0.0
 10
93.8475912656
 20
128.0275040241
 30
0.0
 10
93.8478177129
 20
127.9615529587
 30
0.0
  0
SPLINE
  5
40B
100
AcDbEntity
  8
0
100
AcDbSpline
 62
7
  6
CONTINUOUS
 70
0
 71
3
 72
11
 73
7
 74
0
 42
0.0000001
 43
0.0000001
 44
0.0000000001
 40
0.0
 40
0.0
 40
0.0
 40
0.0
 40
0.250005089
 40
0.5000198558
 40
0.7500058125
 40
1.0
 40
1.0
 40
1.0
 40
1.0
 10
93.4413698288
 20
126.5945949882
 30
0.0
 10
93.5012285254
 20
126.5669069214
 30
0.0
 10
93.6135349244
 20
126.4939039909
 30
0.0
 10
93.7450003369
 20
126.3425477805
 30
0.0
 10
93.8277193175
 20
126.1599900513
 30
0.0
 10
93.8475886098
 20
126.0275274608
 30
0.0
 10
93.8478176224
 20
125.9615785348
 30
0.0
  0
SPLINE
  5
40C
100
AcDbEntity
  8
0
100
AcDbSpline
 62
7
  6
CONTINUOUS
 70
0
 71
3
 72
13
 73
9
 74
0
 42
0.0000001
 43
0.0000001
 44
0.0000000001
 40
0.0
 40
0.0
 40
0.0
 40
0.0
 40
0.2562566341
 40
0.5086423411
 40
0.6332700996
 40
0.7565458206
 40
0.8786172663
 40
1.0
 40
1.0
 40
1.0
 40
1.0
 10
118.7728718483
 20
129.0703585881
 30
0.0
 10
118.7728718483
 20
128.9832748574
 30
0.0
 10
118.8040182694
 20
128.8090592554
 30
0.0
 10
118.915687952
 20
128.6191321956
 30
0.0
 10
119.0404091823
 20
128.5022823276
 30
0.0
 10
119.1470617756
 20
128.4342253433
 30
0.0
 10
119.2640288241
 20
128.3889137049
 30
0.0
 10
119.3462419528
 20
128.3749949171
 30
0.0
 10
119.3873927931
 20
128.3721434887
 30
0.0
  0
SPLINE
  5
40D
100
AcDbEntity
  8
0
100
AcDbSpline
 62
7
  6
CONTINUOUS
 70
0
 71
3
 72
11
 73
7
 74
0
 42
0.0000001
 43
0.0000001
 44
0.0000000001
 40
0.0
 40
0.0
 40
0.0
 40
0.0
 40
0.250001353
 40
0.5000144298
 40
0.7500036463
 40
1.0
 40
1.0
 40
1.0
 40
1.0
 10
92.7795857983
 20
123.3703346583
 30
0.0
 10
92.729533424
 20
123.4014007931
 30
0.0
 10
92.6366484806
 20
123.4762348278
 30
0.0
 10
92.5304386011
 20
123.6198735735
 30
0.0
 10
92.4639982125
 20
123.7855534106
 30
0.0
 10
92.4480583926
 20
123.9037744721
 30
0.0
 10
92.4478268633
 20
123.9626824725
 30
0.0
  0
SPLINE
  5
40E
100
AcDbEntity
  8
3_ALL_AXES
100
AcDbSpline
 62
7
  6
CONTINUOUS
 70
0
 71
3
 72
12
 73
8
 74
0
 42
0.0000001
 43
0.0000001
 44
0.0000000001
 40
0.0
 40
0.0
 40
0.0
 40
0.0
 40
0.2792075752
 40
0.5420210878
 40
0.7798605044
 40
0.8913322573
 40
1.0
 40
1.0
 40
1.0
 40
1.0
 10
116.5414927572
 20
123.5703346688
 30
0.0
 10
116.5414927572
 20
123.6606670167
 30
0.0
 10
116.5675488535
 20
123.8372800792
 30
0.0
 10
116.6808492379
 20
124.0676250612
 30
0.0
 10
116.8322436022
 20
124.2053867723
 30
0.0
 10
116.9710218494
 20
124.2610052031
 30
0.0
 10
117.0425664757
 20
124.2703225966
 30
0.0
 10
117.0777238754
 20
124.2703225966
 30
0.0
  0
SPLINE
  5
40F
100
AcDbEntity
  8
0
100
AcDbSpline
 62
7
  6
CONTINUOUS
 70
0
 71
3
 72
11
 73
7
 74
0
 42
0.0000001
 43
0.0000001
 44
0.0000000001
 40
0.0
 40
0.0
 40
0.0
 40
0.0
 40
0.2449777655
 40
0.4937868403
 40
0.7459602754
 40
1.0
 40
1.0
 40
1.0
 40
1.0
 10
119.0923302134
 20
129.6703585881
 30
0.0
 10
119.0437217637
 20
129.6392138383
 30
0.0
 10
118.9535100913
 20
129.5633132737
 30
0.0
 10
118.8513557156
 20
129.417952404
 30
0.0
 10
118.787815004
 20
129.2499515901
 30
0.0
 10
118.7728718483
 20
129.1302242903
 30
0.0
 10
118.7728718483
 20
129.0703585881
 30
0.0
  0
SPLINE
  5
410
100
AcDbEntity
  8
0
100
AcDbSpline
 62
7
  6
CONTINUOUS
 70
0
 71
3
 72
11
 73
7
 74
0
 42
0.0000001
 43
0.0000001
 44
0.0000000001
 40
0.0
 40
0.0
 40
0.0
 40
0.0
 40
0.2499859034
 40
0.4999811062
 40
0.7499957102
 40
1.0
 40
1.0
 40
1.0
 40
1.0
 10
93.8478216712
 20
123.9653238676
 30
0.0
 10
93.8478216712
 20
123.906199577
 30
0.0
 10
93.8322051598
 20
123.7874772459
 30
0.0
 10
93.7659049795
 20
123.6210171283
 30
0.0
 10
93.6595004508
 20
123.4766780445
 30
0.0
 10
93.5662959959
 20
123.4015162863
 30
0.0
 10
93.5160575441
 20
123.3703346583
 30
0.0
  0
SPLINE
  5
411
100
AcDbEntity
  8
0
100
AcDbSpline
 62
7
  6
CONTINUOUS
 70
0
 71
3
 72
10
 73
6
 74
0
 42
0.0000001
 43
0.0000001
 44
0.0000000001
 40
0.0
 40
0.0
 40
0.0
 40
0.0
 40
0.4982047998
 40
0.7491024798
 40
1.0
 40
1.0
 40
1.0
 40
1.0
 10
73.4478216712
 20
135.5703585881
 30
0.0
 10
73.4478216712
 20
135.8096507901
 30
0.0
 10
73.5390964859
 20
136.1766627268
 30
0.0
 10
73.8138923271
 20
136.5744778798
 30
0.0
 10
73.9969690314
 20
136.7357682183
 30
0.0
 10
74.0961185063
 20
136.8042637304
 30
0.0
  0
SPLINE
  5
412
100
AcDbEntity
  8
0
100
AcDbSpline
 62
7
  6
CONTINUOUS
 70
0
 71
3
 72
11
 73
7
 74
0
 42
0.0000001
 43
0.0000001
 44
0.0000000001
 40
0.0
 40
0.0
 40
0.0
 40
0.0
 40
0.2499999712
 40
0.5000000335
 40
0.7499999406
 40
1.0
 40
1.0
 40
1.0
 40
1.0
 10
74.0961185063
 20
136.8042637304
 30
0.0
 10
74.1952686875
 20
136.8727597305
 30
0.0
 10
74.4106768419
 20
136.9870042922
 30
0.0
 10
74.7653830077
 20
137.0733288847
 30
0.0
 10
75.1301612954
 20
137.0734122513
 30
0.0
 10
75.3670586429
 20
137.015636558
 30
0.0
 10
75.4797080339
 20
136.9728278507
 30
0.0
  0
SPLINE
  5
413
100
AcDbEntity
  8
0
100
AcDbSpline
 62
7
  6
CONTINUOUS
 70
0
 71
3
 72
8
 73
4
 74
0
 42
0.0000001
 43
0.0000001
 44
0.0000000001
 40
0.0
 40
0.0
 40
0.0
 40
0.0
 40
1.0
 40
1.0
 40
1.0
 40
1.0
 10
75.4797080339
 20
136.9728278507
 30
0.0
 10
75.592355027
 20
136.9300200546
 30
0.0
 10
75.7003767577
 20
136.8727582808
 30
0.0
 10
75.7995248619
 20
136.8042637125
 30
0.0
  0
SPLINE
  5
414
100
AcDbEntity
  8
0
100
AcDbSpline
 62
7
  6
CONTINUOUS
 70
0
 71
3
 72
10
 73
6
 74
0
 42
0.0000001
 43
0.0000001
 44
0.0000000001
 40
0.0
 40
0.0
 40
0.0
 40
0.0
 40
0.250888033
 40
0.5017763079
 40
1.0
 40
1.0
 40
1.0
 40
1.0
 10
75.7995248619
 20
136.8042637125
 30
0.0
 10
75.8982939846
 20
136.7360309564
 30
0.0
 10
76.0807249434
 20
136.5754596356
 30
0.0
 10
76.3550256392
 20
136.1795598563
 30
0.0
 10
76.4468895367
 20
135.8143247641
 30
0.0
 10
76.4478108937
 20
135.5759342462
 30
0.0
  0
SPLINE
  5
415
100
AcDbEntity
  8
0
100
AcDbSpline
 62
7
  6
CONTINUOUS
 70
0
 71
3
 72
14
 73
10
 74
0
 42
0.0000001
 43
0.0000001
 44
0.0000000001
 40
0.0
 40
0.0
 40
0.0
 40
0.0
 40
0.2485747925
 40
0.3737663791
 40
0.4990416871
 40
0.6242570068
 40
0.7495114655
 40
0.8747523361
 40
1.0
 40
1.0
 40
1.0
 40
1.0
 10
139.9478215805
 20
126.5703581276
 30
0.0
 10
139.9478215805
 20
126.3231290457
 30
0.0
 10
139.8506005699
 20
125.9432288133
 30
0.0
 10
139.5570606887
 20
125.5383984801
 30
0.0
 10
139.2673855618
 20
125.2959480492
 30
0.0
 10
138.9269695648
 20
125.1325764302
 30
0.0
 10
138.5565167066
 20
125.059149602
 30
0.0
 10
138.1796622536
 20
125.078993388
 30
0.0
 10
137.9388599681
 20
125.1540656137
 30
0.0
 10
137.8255384238
 20
125.2057938976
 30
0.0
  0
SPLINE
  5
416
100
AcDbEntity
  8
0
100
AcDbSpline
 62
7
  6
CONTINUOUS
 70
0
 71
3
 72
14
 73
10
 74
0
 42
0.0000001
 43
0.0000001
 44
0.0000000001
 40
0.0
 40
0.0
 40
0.0
 40
0.0
 40
0.2485693569
 40
0.3737625387
 40
0.4990384975
 40
0.6242549353
 40
0.7495101596
 40
0.8747522318
 40
1.0
 40
1.0
 40
1.0
 40
1.0
 10
139.9478216352
 20
120.5703578205
 30
0.0
 10
139.9478216352
 20
120.3226835994
 30
0.0
 10
139.8502371566
 20
119.9420633579
 30
0.0
 10
139.5556736453
 20
119.5368369489
 30
0.0
 10
139.2650767352
 20
119.2943875212
 30
0.0
 10
138.9236807225
 20
119.1314276402
 30
0.0
 10
138.5523522109
 20
119.0587994022
 30
0.0
 10
138.17485653
 20
119.0798044162
 30
0.0
 10
137.9338611498
 20
119.1558450517
 30
0.0
 10
137.8205277462
 20
119.2080921947
 30
0.0
  0
SPLINE
  5
417
100
AcDbEntity
  8
0
100
AcDbSpline
 62
7
  6
CONTINUOUS
 70
0
 71
3
 72
14
 73
10
 74
0
 42
0.0000001
 43
0.0000001
 44
0.0000000001
 40
0.0
 40
0.0
 40
0.0
 40
0.0
 40
0.248573178
 40
0.3737652377
 40
0.4990407395
 40
0.6242563894
 40
0.7495110759
 40
0.8747523021
 40
1.0
 40
1.0
 40
1.0
 40
1.0
 10
139.9478216524
 20
132.5703600138
 30
0.0
 10
139.9478216524
 20
132.3229986605
 30
0.0
 10
139.8504927291
 20
131.9428844967
 30
0.0
 10
139.5566488266
 20
131.5379362891
 30
0.0
 10
139.26669989
 20
131.2954859206
 30
0.0
 10
138.9259926819
 20
131.1322362849
 30
0.0
 10
138.5552794697
 20
131.0590463458
 30
0.0
 10
138.1782341135
 20
131.0792347408
 30
0.0
 10
137.9373740645
 20
131.1545944798
 30
0.0
 10
137.8240487377
 20
131.2064768177
 30
0.0
  0
SPLINE
  5
418
100
AcDbEntity
  8
0
100
AcDbSpline
 62
7
  6
CONTINUOUS
 70
0
 71
3
 72
14
 73
10
 74
0
 42
0.0000001
 43
0.0000001
 44
0.0000000001
 40
0.0
 40
0.0
 40
0.0
 40
0.0
 40
0.2485734292
 40
0.3737653455
 40
0.4990417398
 40
0.6242568802
 40
0.7495118964
 40
0.8747524726
 40
1.0
 40
1.0
 40
1.0
 40
1.0
 10
73.4478217287
 20
129.5703594654
 30
0.0
 10
73.4478217287
 20
129.8178331656
 30
0.0
 10
73.5452419205
 20
130.198127394
 30
0.0
 10
73.8393421344
 20
130.6031757133
 30
0.0
 10
74.1295220747
 20
130.8456219681
 30
0.0
 10
74.470471311
 20
131.008774946
 30
0.0
 10
74.841402292
 20
131.0817546731
 30
0.0
 10
75.2186075534
 20
131.0612908943
 30
0.0
 10
75.4595109486
 20
130.9856779936
 30
0.0
 10
75.5728399431
 20
130.9336685134
 30
0.0
  0
SPLINE
  5
419
100
AcDbEntity
  8
0
100
AcDbSpline
 62
7
  6
CONTINUOUS
 70
0
 71
3
 72
14
 73
10
 74
0
 42
0.0000001
 43
0.0000001
 44
0.0000000001
 40
0.0
 40
0.0
 40
0.0
 40
0.0
 40
0.248575145
 40
0.3737665594
 40
0.4990427471
 40
0.6242575404
 40
0.7495123111
 40
0.8747525155
 40
1.0
 40
1.0
 40
1.0
 40
1.0
 10
73.4478217633
 20
123.5703571845
 30
0.0
 10
73.4478217633
 20
123.8176903904
 30
0.0
 10
73.5451272868
 20
124.1977573634
 30
0.0
 10
73.8389044362
 20
124.6026806479
 30
0.0
 10
74.1287935211
 20
124.8451270911
 30
0.0
 10
74.469433404
 20
125.0084099821
 30
0.0
 10
74.8400880043
 20
125.0816415203
 30
0.0
 10
75.2170907269
 20
125.0615441589
 30
0.0
 10
75.4579330869
 20
124.9862368401
 30
0.0
 10
75.5712582085
 20
124.9343910143
 30
0.0
  0
SPLINE
  5
41A
100
AcDbEntity
  8
0
100
AcDbSpline
 62
7
  6
CONTINUOUS
 70
0
 71
3
 72
17
 73
13
 74
0
 42
0.0000001
 43
0.0000001
 44
0.0000000001
 40
0.0
 40
0.0
 40
0.0
 40
0.0
 40
0.1248698728
 40
0.1875622248
 40
0.2502839504
 40
0.3751404215
 40
0.4999959595
 40
0.6248521957
 40
0.7497081881
 40
0.8124313595
 40
0.875123161
 40
1.0
 40
1.0
 40
1.0
 40
1.0
 10
136.9478215887
 20
126.5703581276
 30
0.0
 10
136.9478215887
 20
126.7651629953
 30
0.0
 10
137.0077202481
 20
127.0615107288
 30
0.0
 10
137.1917761788
 20
127.4079662455
 30
0.0
 10
137.4411558222
 20
127.7113359058
 30
0.0
 10
137.856503609
 20
127.9914237682
 30
0.0
 10
138.44433796
 20
128.1084102023
 30
0.0
 10
139.0327008518
 20
127.9940944083
 30
0.0
 10
139.4493041483
 20
127.7158718929
 30
0.0
 10
139.7000587277
 20
127.4136416357
 30
0.0
 10
139.8857196734
 20
127.0680222603
 30
0.0
 10
139.9468907304
 20
126.7719300378
 30
0.0
 10
139.9478057047
 20
126.577116451
 30
0.0
  0
SPLINE
  5
41B
100
AcDbEntity
  8
0
100
AcDbSpline
 62
7
  6
CONTINUOUS
 70
0
 71
3
 72
17
 73
13
 74
0
 42
0.0000001
 43
0.0000001
 44
0.0000000001
 40
0.0
 40
0.0
 40
0.0
 40
0.0
 40
0.1248710547
 40
0.1875639428
 40
0.2502855927
 40
0.3751428879
 40
0.4999988364
 40
0.6248546382
 40
0.7497098141
 40
0.8124330289
 40
0.8751242681
 40
1.0
 40
1.0
 40
1.0
 40
1.0
 10
76.447821755
 20
123.5703571845
 30
0.0
 10
76.447821755
 20
123.3755558078
 30
0.0
 10
76.3879223559
 20
123.0792151013
 30
0.0
 10
76.2038795748
 20
122.7327615619
 30
0.0
 10
75.9545039586
 20
122.4294000678
 30
0.0
 10
75.5391787116
 20
122.1493027294
 30
0.0
 10
74.9513596163
 20
122.0323075091
 30
0.0
 10
74.3630142319
 20
122.1466012305
 30
0.0
 10
73.9464032892
 20
122.4247843245
 30
0.0
 10
73.6956440861
 20
122.7269938012
 30
0.0
 10
73.5099588742
 20
123.0725846249
 30
0.0
 10
73.4487708177
 20
123.3686621862
 30
0.0
 10
73.4478382568
 20
123.5634686273
 30
0.0
  0
SPLINE
  5
41C
100
AcDbEntity
  8
0
100
AcDbSpline
 62
7
  6
CONTINUOUS
 70
0
 71
3
 72
17
 73
13
 74
0
 42
0.0000001
 43
0.0000001
 44
0.0000000001
 40
0.0
 40
0.0
 40
0.0
 40
0.0
 40
0.1248698784
 40
0.1875622472
 40
0.2502839992
 40
0.3751404669
 40
0.499996011
 40
0.6248522478
 40
0.7497082633
 40
0.8124314307
 40
0.8751232707
 40
1.0
 40
1.0
 40
1.0
 40
1.0
 10
136.9478216384
 20
120.5703578205
 30
0.0
 10
136.9478216384
 20
120.7651683643
 30
0.0
 10
137.0077237891
 20
121.0615250017
 30
0.0
 10
137.1917903127
 20
121.4079880341
 30
0.0
 10
137.4411834553
 20
121.7113616312
 30
0.0
 10
137.8565520955
 20
121.9914461603
 30
0.0
 10
138.4444091828
 20
122.1084123701
 30
0.0
 10
139.0327841523
 20
121.9940624222
 30
0.0
 10
139.4493826044
 20
121.7158049547
 30
0.0
 10
139.700122799
 20
121.4135475399
 30
0.0
 10
139.8857614786
 20
121.0679033882
 30
0.0
 10
139.9469101153
 20
120.7717969675
 30
0.0
 10
139.9478064025
 20
120.5769777973
 30
0.0
  0
SPLINE
  5
41D
100
AcDbEntity
  8
0
100
AcDbSpline
 62
7
  6
CONTINUOUS
 70
0
 71
3
 72
17
 73
13
 74
0
 42
0.0000001
 43
0.0000001
 44
0.0000000001
 40
0.0
 40
0.0
 40
0.0
 40
0.0
 40
0.1248698826
 40
0.1875622637
 40
0.2502840353
 40
0.3751405005
 40
0.4999960491
 40
0.6248522863
 40
0.7497083188
 40
0.8124314834
 40
0.8751233518
 40
1.0
 40
1.0
 40
1.0
 40
1.0
 10
136.9478216541
 20
132.5703600138
 30
0.0
 10
136.9478216541
 20
132.765174753
 30
0.0
 10
137.0077263853
 20
133.0615379719
 30
0.0
 10
137.1918007389
 20
133.4080065596
 30
0.0
 10
137.4412038597
 20
133.7113830664
 30
0.0
 10
137.8565879142
 20
133.991465131
 30
0.0
 10
138.4444618069
 20
134.1084163907
 30
0.0
 10
139.0328457023
 20
133.9940411958
 30
0.0
 10
139.4494405717
 20
133.7157578926
 30
0.0
 10
139.7001701312
 20
133.4134804034
 30
0.0
 10
139.8857923508
 20
133.0678179391
 30
0.0
 10
139.9469244135
 20
132.7717010245
 30
0.0
 10
139.9478068866
 20
132.5768777286
 30
0.0
  0
SPLINE
  5
41E
100
AcDbEntity
  8
0
100
AcDbSpline
 62
7
  6
CONTINUOUS
 70
0
 71
3
 72
17
 73
13
 74
0
 42
0.0000001
 43
0.0000001
 44
0.0000000001
 40
0.0
 40
0.0
 40
0.0
 40
0.0
 40
0.1248710567
 40
0.1875639507
 40
0.25028561
 40
0.375142904
 40
0.4999988547
 40
0.6248546568
 40
0.7497098407
 40
0.8124330542
 40
0.875124307
 40
1.0
 40
1.0
 40
1.0
 40
1.0
 10
76.4478217235
 20
129.5703594654
 30
0.0
 10
76.4478217235
 20
129.3755560659
 30
0.0
 10
76.3879210802
 20
129.0792121861
 30
0.0
 10
76.2038745241
 20
128.7327559679
 30
0.0
 10
75.9544940965
 20
128.4293930712
 30
0.0
 10
75.5391614178
 20
128.1492969202
 30
0.0
 10
74.9513342194
 20
128.0323089062
 30
0.0
 10
74.3629845297
 20
128.1466147992
 30
0.0
 10
73.9463753132
 20
128.4248103504
 30
0.0
 10
73.6956212338
 20
128.727029504
 30
0.0
 10
73.5099439567
 20
129.0726291592
 30
0.0
 10
73.448763889
 20
129.3687117808
 30
0.0
 10
73.447837987
 20
129.5635202129
 30
0.0
  0
SPLINE
  5
41F
100
AcDbEntity
  8
0
100
AcDbSpline
 62
7
  6
CONTINUOUS
 70
0
 71
3
 72
17
 73
13
 74
0
 42
0.0000001
 43
0.0000001
 44
0.0000000001
 40
0.0
 40
0.0
 40
0.0
 40
0.0
 40
0.1248679714
 40
0.2496948535
 40
0.3124260357
 40
0.3751541457
 40
0.4999977386
 40
0.6248424679
 40
0.6875695826
 40
0.7503015827
 40
0.8751282725
 40
1.0
 40
1.0
 40
1.0
 40
1.0
 10
76.4478216712
 20
135.5703585881
 30
0.0
 10
76.4478216712
 20
135.3755681025
 30
0.0
 10
76.3694045755
 20
134.9822281698
 30
0.0
 10
76.0917537908
 20
134.5656861482
 30
0.0
 10
75.787741931
 20
134.3172413167
 30
0.0
 10
75.4425601096
 20
134.1300358816
 30
0.0
 10
74.9513606962
 20
134.0323970654
 30
0.0
 10
74.45971634
 20
134.1277622429
 30
0.0
 10
74.1136725059
 20
134.3133794148
 30
0.0
 10
73.8085510819
 20
134.5604525851
 30
0.0
 10
73.5289175946
 20
134.9756832586
 30
0.0
 10
73.4487679703
 20
135.3686767623
 30
0.0
 10
73.4478381157
 20
135.5634708882
 30
0.0
  0
LINE
  5
420
100
AcDbEntity
  8
0
100
AcDbLine
 62
7
  6
CONTINUOUS
 10
77.2391783353
 20
112.1613567668
 11
77.1978216712
 21
112.4703585881
  0
LINE
  5
421
100
AcDbEntity
  8
0
100
AcDbLine
 62
7
  6
CONTINUOUS
 10
133.2761963393
 20
62.0703585881
 11
133.0619773709
 21
61.7845775566
  0
LINE
  5
422
100
AcDbEntity
  8
0
100
AcDbLine
 62
7
  6
CONTINUOUS
 10
80.3336659714
 20
61.7845775566
 11
80.2267196784
 21
61.9272073231
  0
LINE
  5
423
100
AcDbEntity
  8
0
100
AcDbLine
 62
7
  6
CONTINUOUS
 10
80.2267196784
 20
61.9272073231
 11
80.119447003
 21
62.0703585881
  0
SPLINE
  5
424
100
AcDbEntity
  8
0
100
AcDbSpline
 62
7
  6
CONTINUOUS
 70
0
 71
3
 72
13
 73
9
 74
0
 42
0.0000001
 43
0.0000001
 44
0.0000000001
 40
0.0
 40
0.0
 40
0.0
 40
0.0
 40
0.1548424802
 40
0.3029829986
 40
0.4355833429
 40
0.5532584458
 40
0.7717813992
 40
1.0
 40
1.0
 40
1.0
 40
1.0
 10
85.7657888029
 20
61.0703585881
 30
0.0
 10
85.8272142991
 20
61.0703585881
 30
0.0
 10
85.9478697203
 20
61.079859482
 30
0.0
 10
86.1144555228
 20
61.1330288098
 30
0.0
 10
86.2453506181
 20
61.2282250306
 30
0.0
 10
86.3419001292
 20
61.3935963328
 30
0.0
 10
86.3340757726
 20
61.6311782103
 30
0.0
 10
86.2571733179
 20
61.7930738564
 30
0.0
 10
86.2100204226
 20
61.8703585881
 30
0.0
  0
SPLINE
  5
425
100
AcDbEntity
  8
0
100
AcDbSpline
 62
7
  6
CONTINUOUS
 70
0
 71
3
 72
11
 73
7
 74
0
 42
0.0000001
 43
0.0000001
 44
0.0000000001
 40
0.0
 40
0.0
 40
0.0
 40
0.0
 40
0.3278160534
 40
0.608487563
 40
0.8274090551
 40
1.0
 40
1.0
 40
1.0
 40
1.0
 10
127.1856229197
 20
67.9703585881
 30
0.0
 10
127.1856229197
 20
68.0799818309
 30
0.0
 10
127.2106989455
 20
68.2846917588
 30
0.0
 10
127.316145983
 20
68.5440825882
 30
0.0
 10
127.4642067723
 20
68.7203980575
 30
0.0
 10
127.5950581229
 20
68.7703585881
 30
0.0
 10
127.6527733533
 20
68.7703585881
 30
0.0
  0
SPLINE
  5
426
100
AcDbEntity
  8
0
100
AcDbSpline
 62
7
  6
CONTINUOUS
 70
0
 71
3
 72
11
 73
7
 74
0
 42
0.0000001
 43
0.0000001
 44
0.0000000001
 40
0.0
 40
0.0
 40
0.0
 40
0.0
 40
0.1725909449
 40
0.391512437
 40
0.6721839466
 40
1.0
 40
1.0
 40
1.0
 40
1.0
 10
85.742869989
 20
68.7703585881
 30
0.0
 10
85.8005852194
 20
68.7703585881
 30
0.0
 10
85.93143657
 20
68.7203980575
 30
0.0
 10
86.0794973593
 20
68.5440825882
 30
0.0
 10
86.1849443969
 20
68.2846917588
 30
0.0
 10
86.2100204226
 20
68.0799818309
 30
0.0
 10
86.2100204226
 20
67.9703585881
 30
0.0
  0
SPLINE
  5
427
100
AcDbEntity
  8
0
100
AcDbSpline
 62
7
  6
CONTINUOUS
 70
0
 71
3
 72
13
 73
9
 74
0
 42
0.0000001
 43
0.0000001
 44
0.0000000001
 40
0.0
 40
0.0
 40
0.0
 40
0.0
 40
0.2282186008
 40
0.4467415542
 40
0.5644166571
 40
0.6970170014
 40
0.8451575198
 40
1.0
 40
1.0
 40
1.0
 40
1.0
 10
127.1856229197
 20
61.8703585881
 30
0.0
 10
127.1384700244
 20
61.7930738564
 30
0.0
 10
127.0615675698
 20
61.6311782103
 30
0.0
 10
127.0537432131
 20
61.3935963328
 30
0.0
 10
127.1502927242
 20
61.2282250306
 30
0.0
 10
127.2811878196
 20
61.1330288098
 30
0.0
 10
127.447773622
 20
61.079859482
 30
0.0
 10
127.5684290432
 20
61.0703585881
 30
0.0
 10
127.6298545395
 20
61.0703585881
 30
0.0
  0
ELLIPSE
  5
428
100
AcDbEntity
  8
0
100
AcDbEllipse
 62
7
  6
CONTINUOUS
 10
132.1761963393
 20
67.9703585881
 30
0.0
 11
0.0
 21
0.8
 31
0.0
 40
1.0
 41
-1.5707963268
 42
0.0
  0
ELLIPSE
  5
429
100
AcDbEntity
  8
0
100
AcDbEllipse
 62
7
  6
CONTINUOUS
 10
81.219447003
 20
67.9703585881
 30
0.0
 11
0.8
 21
0.0
 31
0.0
 40
1.0
 41
1.5707963268
 42
3.1415926536
  0
ENDSEC
  0
SECTION
  2
OBJECTS
  0
DICTIONARY
  5
C
100
AcDbDictionary
280
0
281
1
  3
ACAD_GROUP
350
D
  3
ACAD_MLINESTYLE
350
17
  3
ACAD_LAYOUT
350
1A
  3
ACAD_PLOTSETTINGS
350
19
  3
ACAD_PLOTSTYLENAME
350
E
  3
ACAD_TABLESTYLE
350
       42A
  0
DICTIONARY
  5
D
102
{ACAD_REACTORS
330
C
102
}
100
AcDbDictionary
280
0
281
1
  0
ACDBDICTIONARYWDFLT
  5
E
102
{ACAD_REACTORS
330
C
102
}
100
AcDbDictionary
281
1
  3
Normal
350
F
100
AcDbDictionaryWithDefault
340
F
  0
DICTIONARY
  5
17
102
{ACAD_REACTORS
330
C
102
}
100
AcDbDictionary
280
0
281
1
  3
Standard
350
18
  0
DICTIONARY
  5
42A
330
C
100
AcDbDictionary
281
1
  3
Standard
350
       42D
  3
Standard1
350
       42E
  0
DICTIONARY
  5
19
102
{ACAD_REACTORS
330
C
102
}
100
AcDbDictionary
281
1
  0
DICTIONARY
  5
1A
102
{ACAD_REACTORS
330
C
102
}
100
AcDbDictionary
281
1
  3
Model
350
42B
  3
Layout1
350
42C
  0
ACDBPLACEHOLDER
  5
F
102
{ACAD_REACTORS
330
E
102
}
  0
MLINESTYLE
  5
18
102
{ACAD_REACTORS
330
17
102
}
100
AcDbMlineStyle
  2
STANDARD
 70
0
  3

 62
256
 51
90.0
 52
90.0
 71
2
 49
0.5
 62
256
  6
BYLAYER
 49
-0.5
 62
256
  6
BYLAYER
  0
LAYOUT
  5
42B
102
{ACAD_REACTORS
330
1A
102
}
100
AcDbPlotSettings
  1

  2
none_device
  4

  6

 40
0.0
 41
0.0
 42
0.0
 43
0.0
 44
210.0
 45
297.0
 46
0.0
 47
0.0
 48
0.0
 49
0.0
140
0.0
141
0.0
142
1.0
143
1.0
 70
1024
 72
1
 73
0
 74
0
  7

 75
0
147
1.0
148
0.0
149
0.0
100
AcDbLayout
  1
Model
 70
0
 71
0
 10
0.0
 20
0.0
 11
210.0
 21
297.0
 12
0.0
 22
0.0
 32
0.0
 14
0.0
 24
0.0
 34
0.0
 15
0.0
 25
0.0
 35
0.0
146
0.0
 13
0.0
 23
0.0
 33
0.0
 16
1.0
 26
0.0
 36
0.0
 17
0.0
 27
1.0
 37
0.0
 76
0
330
216
345
0
346
0
  0
LAYOUT
  5
42C
102
{ACAD_REACTORS
330
1A
102
}
100
AcDbPlotSettings
  1

  2
none_device
  4

  6

 40
0.0
 41
0.0
 42
0.0
 43
0.0
 44
210.0
 45
297.0
 46
0.0
 47
0.0
 48
0.0
 49
0.0
140
0.0
141
0.0
142
1.0
143
1.0
 70
0
 72
1
 73
0
 74
0
  7

 75
0
147
1.0
148
0.0
149
0.0
100
AcDbLayout
  1
Layout1
 70
0
 71
1
 10
0.0
 20
0.0
 11
210.0
 21
297.0
 12
0.0
 22
0.0
 32
0.0
 14
0.0
 24
0.0
 34
0.0
 15
0.0
 25
0.0
 35
0.0
146
0.0
 13
0.0
 23
0.0
 33
0.0
 16
1.0
 26
0.0
 36
0.0
 17
0.0
 27
1.0
 37
0.0
 76
0
330
217
345
0
346
0
  0
TABLESTYLE
  5
42D
102
{ACAD_REACTORS
330
42A
102
}
330
42A
100
AcDbTableStyle
  3
Standard
 70
0
 71
0
 40
0.06
 41
0.06
280
1
281
1
  7
Standard
140
0.18
170
1
 62
0
 63
7
283
0
  7
Standard
140
0.18
170
1
 62
0
 63
7
283
0
  7
Standard
140
0.18
170
1
 62
0
 63
7
283
0
  0
TABLESTYLE
  5
42E
102
{ACAD_REACTORS
330
42A
330
25D
102
}
330
42A
100
AcDbTableStyle
  3
Standard1
 70
1
 71
0
 40
0.06
 41
0.06
280
1
281
1
  7
Standard
140
0.18
170
1
 62
0
 63
7
283
0
  7
Standard
140
0.18
170
1
 62
0
 63
7
283
0
  7
Standard
140
0.18
170
1
 62
0
 63
7
283
0
  0
ENDSEC
  0
EOF
